Guitar Tabs, Chords and Lyrics
Major upgrade!! After one year development the new version of Chordie is now online! Please give feedback.


Time to Waste  Alkaline Trio

 
 -------------------------------------------------------------------------------

Time To Waste - Alkaline Trio
 
 -------------------------------------------------------------------------------

Chords by: SirCotare
Email: sircotare@3025-game.de
Creative-Commons License: http://creativecommons.org/licenses/by-nc-sa/2.0/at/
Tuning: EADGBE
INTRO (x2)
[Em] [C]  
 
 --0-0-0--3-3-3-3-3--2-2-2--0-0-0-0-0---0-0-0--3-3-3-3-3--2-2-2--0-0-0-0-0--
 --0-0-0--0-0-0-0-0--0-0-0--0-0-0-0-0---1-1-1--1-1-1-1-1--1-1-1--1-1-1-1-1--
 --0-0-0--0-0-0-0-0--0-0-0--0-0-0-0-0---0-0-0--0-0-0-0-0--0-0-0--0-0-0-0-0--
 --2-2-2--2-2-2-2-2--2-2-2--2-2-2-2-2---2-2-2--2-2-2-2-2--2-2-2--2-2-2-2-2--
 --2-2-2--2-2-2-2-2--2-2-2--2-2-2-2-2---3-3-3--3-3-3-3-3--3-3-3--3-3-3-3-3--
 --0-0-0--0-0-0-0-0--0-0-0--0-0-0-0-0---0-0-0--0-0-0-0-0--0-0-0--0-0-0-0-0--

[Em]There's someone down below blowing you a [C]kiss.
They [G]watch from their [D]windows
As [Em]all arms fall to their sides,
And all eyes [C]fix on the [G]death of [D]tomorrow.
And [Em]you found everything you need
To make a life comp[C]lete.
Com[G]pletely revo[D]lting.
And [Em]they have safety and relief for sale up the [C]street
I [G]see you in [D]line everyd[G]ay
[G]You had time to [Em]waste, but I[C]'m not sorry[G].
[G]Such a basket [Em]case, hide [C]the cutler[G]y.
[G]I had time to [Em]kill, It's [C]dead and bur[G]ied.
[G]You've got guts to [Em]spill, but no [C]one's trust-worthy.
INTRO (x2)
[Em]These creatures are waking up in these dark [C]trees.
A[G]waiting like [D]vultures.
And [Em]eyes rolled back turned white in time to [C]feed
A [G]salivating [D]hunger...for [Em]you, and everything they need
To make a death com[C]plete... com[G]pletely un[D]natural.
And [Em]salvation lies, behind those dead [C]eyes
that [G]watch while you [D]sleep every [G]night and...
[G]You had time to [Em]waste, but I[C]'m not sorry[G].
[G]Such a basket [Em]case, hide [C]the cutler[G]y.
[G]I had time to [Em]kill, It's [C]dead and bur[G]ied.
[G]You've got guts to [Em]spill, but no [C]one's trust-worthy.
[G]You had time to [Em]waste, but I[C]'m not sorry[G].
[G]Such a basket [Em]case, hide [C]the cutler[G]y.
[G]I had time to [Em]kill, It's [C]dead and bur[G]ied.
[G]You've got guts to [Em]spill, but no [C]one's trust-worthy.
INTRO

Important: The song above is NOT stored on the Chordie server. The original song is hosted at www.guitaretab.com. Chordie works as a search engine and provides on-the-fly formatting. Chordie does not index songs against artists'/composers' will. To remove this song please click here.

Text color:
Chord color:
Chord grids: 
Font size:    
Page size: 

C D Em G
Rate #1 of 6 versions

Jango Player

Login - add to songbook

SHARE PAGE  



You need to log in to post comments