Guitar Tabs, Chords and Lyrics
Server problems seems to be fixed. Chordie has been experiencing problems with songs disappearing. These issues now seems to be fixed, but still verifying the fix. If you find anything strange, please email admin@chordie.com.


Your Neck  Alkaline Trio

YOUR NECK
As recorded by Alkaline Trio
(From the 2005 Album CRIMSON)
Words and Music by Alkaline Trio
Arranged by Alkaline Trio
Transcribed by dustin415
3 5 [G5]x x x x 2 5[D/F#] x x x x 0 2 [E5]x x x x x 2 [G/B]5 x x x
x 3 [C5]5 x x x x 5 [D5]7 x x x x 0 [A5]2 x x x x 2 [B5]4 x x x
x 6 [Eb5]8 8 x x
Gtr I (E A D G B E) - 'Intro Guitar'
Gtr II (E A D G B E) - 'Lead'
Gtr III (E A D G B E) - 'Rhythm'
Gtr IV (E A D G B E) - 'Piano'
Intro/Chorus
Q=160
[G5] [D/F#] 
[4/4] Gtr I
[E] [E] [E] [E] [E] [E] [E] [E] [E] [E] [E] [E] [E] [E] [E] [E] [E] [E] [E] [E] [E] [E] [E] [E] [E] [E] [E] [E] [E] [E] [E] [E]  
 
 |-----------------|-----------------|-----------------|-----------------|
 |-----------------|-----------------|-----------------|-----------------|
 |-----------------|-----------------|-----------------|-----------------|
 |-----------------|-----------------|-----------------|-----------------|
 |-5-5-5-5-5-5-5-5-|-5-5-5-5-5-5-5-5-|-5-5-5-5-5-5-5-5-|-5-5-5-5-5-5-5-5-|
 |-3-3-3-3-3-3-3-3-|-3-3-3-3-3-3-3-3-|-3-3-3-3-3-3-3-3-|-3-3-3-3-2-2-2-2-|

[E5] [G/B] 
[E] [E] [E] [E] [E] [E] [E] [E] [E] [E] [E] [E] [E] [E] [E] [E] [E] [E] [E] [E] [E] [E] [E] [E] [E] [E] [E] [E] [E] [E] [E] [E]  
 
 |-----------------|-----------------|-----------------|-----------------|
 |-----------------|-----------------|-----------------|-----------------|
 |-----------------|-----------------|-----------------|-----------------|
 |-----------------|-----------------|-----------------|---------5-5-5-5-|
 |-2-2-2-2-2-2-2-2-|-2-2-2-2-2-2-2-2-|-2-2-2-2-2-2-2-2-|-2-2-2-2-2-2-2-2-|
 |-0-0-0-0-0-0-0-0-|-0-0-0-0-0-0-0-0-|-0-0-0-0-0-0-0-0-|-0-0-0-0---------|

[C5]  
[E] [E] [E] [E] [E] [E] [E] [E] [E] [E] [E] [E] [E] [E] [E] [E] [E] [E] [E] [E] [E] [E] [E] [E] [E] [E] [E] [E] [E] [E] [E] [E]  
 
 |-----------------|-----------------|-----------------|-----------------|
 |-----------------|-----------------|-----------------|-----------------|
 |-----------------|-----------------|-----------------|-----------------|
 |-5-5-5-5-5-5-5-5-|-5-5-5-5-5-5-5-5-|-5-5-5-5-5-5-5-5-|-5-5-5-5-5-5-5-5-|
 |-3-3-3-3-3-3-3-3-|-3-3-3-3-3-3-3-3-|-3-3-3-3-3-3-3-3-|-3-3-3-3-3-3-3-3-|
 |-----------------|-----------------|-----------------|-----------------|

[D5] [C5] [G/B] 
[E] [E] [E] [E] [E] [E] [E] [E] [E] [E] [E] [E] [E] [E] [E] [E] [E] [E] [E] [E] [E] [E] [E] [E] [B] [B]  
 
 |-----------------|-----------------|-----------------|-------------||
 |-----------------|-----------------|-----------------|-------------||
 |-----------------|-----------------|-----------------|-------------||
 |-7-7-7-7-7-7-7-7-|-7-7-7-7-7-7-7-7-|-7-7-7-7-7-7-7-7-|-5----(5)----||
 |-5-5-5-5-5-5-5-5-|-5-5-5-5-5-5-5-5-|-5-5-5-5-5-5-5-5-|-3-----2-----||
 |-----------------|-----------------|-----------------|-------------||

Bridge
N.E5 A5 C5 N.E5 A5 C5
Gtr II
[E] [E] [E] [E] [E] [E] [E] [E] [E] [E] [E] [E] [E] [E] [E] [E] [E] [E] [E] [E] [E] [E] [E] [E] [E] [E] [E] [E] [E] [E] [E] [E]  
 
 |-----------------|--------------------|-----------------|-----------------|
 |-----------------|--------------------|-----------------|-----------------|
 |---9-9-9-9-9-9-9-|-7-7-7-7-12-12-12-7-|---9-9-9-9-9-9-9-|-7-7-7-7-5-5-5-4-|
 |-----------------|--------------------|-----------------|-----------------|
 |---7-7-7-7-7-7-7-|-5-5-5-5-10-10-10-5-|---7-7-7-7-7-7-7-|-5-5-5-5-3-3-3-2-|
 |-----------------|--------------------|-----------------|-----------------|

|
| Gtr III
| E E E E E E E E E E E E E E E E E E E E E E E E E E E E E E E E
 
 |-----------------|--------------------|-----------------|-----------------|
 |-----------------|--------------------|-----------------|-----------------|
 |-----------------|-2-2-2-2--5--5--5-5-|-----------------|-2-2-2-2-5-5-5-5-|
 |---2-2-2-2-2-2-2-|-2-2-2-2--5--5--5-5-|---2-2-2-2-2-2-2-|-2-2-2-2-5-5-5-5-|
 |---2-2-2-2-2-2-2-|-0-0-0-0--3--3--3-3-|---2-2-2-2-2-2-2-|-0-0-0-0-3-3-3-3-|
 |---0-0-0-0-0-0-0-|--------------------|---0-0-0-0-0-0-0-|-----------------|

N.E5 A5 C5
[E] [E] [E] [E] [E] [E] [E] [E] [E] [E] [E] [E] [E] [E] [E] [E]  
 
 |-----------------|--------------------|
 |-----------------|--------------------|
 |---9-9-9-9-9-9-9-|-7-7-7-7-12-12-12-7-|
 |-----------------|--------------------|
 |---7-7-7-7-7-7-7-|-5-5-5-5-10-10-10-5-|
 |-----------------|--------------------|

|
| E E E E E E E E E E E E E E E E
 
 |-----------------|--------------------|
 |-----------------|--------------------|
 |-----------------|-2-2-2-2--5--5--5-5-|
 |---2-2-2-2-2-2-2-|-2-2-2-2--5--5--5-5-|
 |---2-2-2-2-2-2-2-|-0-0-0-0--3--3--3-3-|
 |---0-0-0-0-0-0-0-|--------------------|

N.A5 B5 C5
[E] [E] [E] [E] [E] [E] [E] [E] [E] [E] [E] [E] [E] [E] [E] [E]  
 
 |-----------------|-------------------------||
 |-----------------|-------------------------||
 |---9-9-9-9-9-9-9-|-11-11-11-11-12-12-12-12-||
 |-----------------|-------------------------||
 |---7-7-7-7-7-7-7-|--9--9--9--9-10-10-10-10-||
 |-----------------|-------------------------||

|
| E E E E E E E E E E E E E E E E
 
 |-----------------|-------------------------||
 |-----------------|-------------------------||
 |---2-2-2-2-2-2-2-|--4--4--4--4--5--5--5--5-||
 |---2-2-2-2-2-2-2-|--4--4--4--4--5--5--5--5-||
 |---0-0-0-0-0-0-0-|--2--2--2--2--3--3--3--3-||
 |-----------------|-------------------------||

Verse
[E5] [A5] [C5] [B5]  
 
 PM------------------------------------------------------------------|

[E] [E] [E] [E] [E] [E] [E] [E] [E] [E] [E] [E] [E] [E] [E] [E] [E] [E] [E] [E] [E] [E] [E] [E] [E] [E] [E] [E] [E] [E] [E] [E]  
 
 ||------------------|-----------------|-----------------|-------------------||
 ||o-----------------|-----------------|-----------------|------------------o||
 ||------------------|-----------------|-----------------|-------------------||
 ||------------------|-----------------|-2-2-2-2-2-2-2-2-|-5-5-5-5-4-4-4-4---||
 ||o-2-2-2-2-2-2-2-2-|-2-2-2-2-2-2-2-2-|-0-0-0-0-0-0-0-0-|-3-3-3-3-2-2-2-2--o||
 ||--0-0-0-0-0-0-0-0-|-0-0-0-0-0-0-0-0-|-----------------|-------------------||

[E5] [A5] [C5] [B5]  
 
 PM-----------------------------------------------------------------------|

[E] [E] [E] [E] [E] [E] [E] [E] [E] [E] [E] [E] [E] [E] [E] [E] [E] [E] [E] [E] [E] [E] [E] [E] [E] [E] [E] [E] [E] [E] [E] [E]  
 
 |--------------------|------------------|-------------------|-----------------|
 |--------------------|------------------|-------------------|-----------------|
 |--------------------|------------------|-------------------|-----------------|
 |--------------------|------------------|--2--2-2-2-2-2-2-2-|-5-5-5-5-4-4-4-4-|
 |--2-2-2-2--2--2-2-2-|--2-2-2-2-2-2-2-2-|--0--0-0-0-0-0-0-0-|-3-3-3-3-2-2-2-2-|
 |--0-0-0-0--0--0-0-0-|--0-0-0-0-0-0-0-0-|-------------------|-----------------|

|
| Gtr IV
| H H H Q Q +H Q Q Q Q Q Q
 
 |-12-------12--------|-10-------7---8---|-(8)-----------7---|-8---7---5---3---|
 |--------------------|------------------|-------------------|-----------------|
 |--9-------(9)-------|------------------|-------------------|-----------------|
 |--------------------|------------------|-------------------|-----------------|
 |--------------------|------------------|-------------------|-----------------|
 |--------------------|------------------|-------------------|-----------------|

[C5] [D5] [C5] [B5]  
 
 PM---------------------------------------------------------------------|

[E] [E] [E] [E] [E] [E] [E] [E] [E] [E] [E] [E] [E] [E] [E] [E] [E] [E] [E] [E] [E] [E] [E] [E] [E] [E] [E] [E] [E] [E] [E] [E]  
 
 |--------------------|------------------|-----------------|-----------------||
 |--------------------|------------------|-----------------|-----------------||
 |--------------------|------------------|-----------------|-----------------||
 |--5-5-5-5--5--5-5-5-|--5-5-5-5-5-5-5-5-|-7-7-7-7-7-7-7-7-|-5-5-5-5-4-4-4-4-||
 |--3-3-3-3--3--3-3-3-|--3-3-3-3-3-3-3-3-|-5-5-5-5-5-5-5-5-|-3-3-3-3-2-2-2-2-||
 |--------------------|------------------|-----------------|-----------------||

|
| H H H H W W
 
 |-12-------12--------|-10-------7-------|-8---------------|-----------------||
 |--------------------|------------------|-----------------|-----------------||
 |--9-------(9)-------|------------------|-----------------|-----------------||
 |--------------------|------------------|-----------------|-----------------||
 |--------------------|------------------|-----------------|-----------------||
 |--------------------|------------------|-----------------|-----------------||

Bridge
N.E5 A5 C5 N.E5 A5 C5
[E] [E] [E] [E] [E] [E] [E] [E] [E] [E] [E] [E] [E] [E] [E] [E] [E] [E] [E] [E] [E] [E] [E] [E] [E] [E] [E] [E] [E] [E] [E] [E]  
 
 |-----------------|--------------------|-----------------|-----------------||
 |-----------------|--------------------|-----------------|-----------------||
 |---9-9-9-9-9-9-9-|-7-7-7-7-12-12-12-7-|---9-9-9-9-9-9-9-|-7-7-7-7-5-5-5-4-||
 |-----------------|--------------------|-----------------|-----------------||
 |---7-7-7-7-7-7-7-|-5-5-5-5-10-10-10-5-|---7-7-7-7-7-7-7-|-5-5-5-5-3-3-3-2-||
 |-----------------|--------------------|-----------------|-----------------||

|
| Gtr III
| E E E E E E E E E E E E E E E E E E E E E E E E E E E E E E E E
 
 |-----------------|--------------------|-----------------|-----------------||
 |-----------------|--------------------|-----------------|-----------------||
 |-----------------|-2-2-2-2--5--5--5-5-|-----------------|-2-2-2-2-5-5-5-5-||
 |---2-2-2-2-2-2-2-|-2-2-2-2--5--5--5-5-|---2-2-2-2-2-2-2-|-2-2-2-2-5-5-5-5-||
 |---2-2-2-2-2-2-2-|-0-0-0-0--3--3--3-3-|---2-2-2-2-2-2-2-|-0-0-0-0-3-3-3-3-||
 |---0-0-0-0-0-0-0-|--------------------|---0-0-0-0-0-0-0-|-----------------||

Verse
[E5] [A5] [C5] [B5]  
 
 PM------------------------------------------------------------------|

[E] [E] [E] [E] [E] [E] [E] [E] [E] [E] [E] [E] [E] [E] [E] [E] [E] [E] [E] [E] [E] [E] [E] [E] [E] [E] [E] [E] [E] [E] [E] [E]  
 
 ||------------------|-----------------|-----------------|-------------------||
 ||o-----------------|-----------------|-----------------|------------------o||
 ||------------------|-----------------|-----------------|-------------------||
 ||------------------|-----------------|-2-2-2-2-2-2-2-2-|-5-5-5-5-4-4-4-4---||
 ||o-2-2-2-2-2-2-2-2-|-2-2-2-2-2-2-2-2-|-0-0-0-0-0-0-0-0-|-3-3-3-3-2-2-2-2--o||
 ||--0-0-0-0-0-0-0-0-|-0-0-0-0-0-0-0-0-|-----------------|-------------------||

[E5] [A5] [C5] [B5]  
 
 PM-----------------------------------------------------------------------|

[E] [E] [E] [E] [E] [E] [E] [E] [E] [E] [E] [E] [E] [E] [E] [E] [E] [E] [E] [E] [E] [E] [E] [E] [E] [E] [E] [E] [E] [E] [E] [E]  
 
 |--------------------|------------------|-------------------|-----------------|
 |--------------------|------------------|-------------------|-----------------|
 |--------------------|------------------|-------------------|-----------------|
 |--------------------|------------------|--2--2-2-2-2-2-2-2-|-5-5-5-5-4-4-4-4-|
 |--2-2-2-2--2--2-2-2-|--2-2-2-2-2-2-2-2-|--0--0-0-0-0-0-0-0-|-3-3-3-3-2-2-2-2-|
 |--0-0-0-0--0--0-0-0-|--0-0-0-0-0-0-0-0-|-------------------|-----------------|

|
| Gtr IV
| H H H Q Q +H Q Q Q Q Q Q
 
 |-12-------12--------|-10-------7---8---|-(8)-----------7---|-8---7---5---3---|
 |--------------------|------------------|-------------------|-----------------|
 |--9-------(9)-------|------------------|-------------------|-----------------|
 |--------------------|------------------|-------------------|-----------------|
 |--------------------|------------------|-------------------|-----------------|
 |--------------------|------------------|-------------------|-----------------|

[C5] [D5] [C5] [B5]  
 
 PM---------------------------------------------------------------------|

[E] [E] [E] [E] [E] [E] [E] [E] [E] [E] [E] [E] [E] [E] [E] [E] [E] [E] [E] [E] [E] [E] [E] [E] [E] [E] [E] [E] [E] [E] [E] [E]  
 
 |--------------------|------------------|-----------------|-----------------||
 |--------------------|------------------|-----------------|-----------------||
 |--------------------|------------------|-----------------|-----------------||
 |--5-5-5-5--5--5-5-5-|--5-5-5-5-5-5-5-5-|-7-7-7-7-7-7-7-7-|-5-5-5-5-4-4-4-4-||
 |--3-3-3-3--3--3-3-3-|--3-3-3-3-3-3-3-3-|-5-5-5-5-5-5-5-5-|-3-3-3-3-2-2-2-2-||
 |--------------------|------------------|-----------------|-----------------||

|
| H H H H W W
 
 |-12-------12--------|-10-------7-------|-8---------------|-----------------||
 |--------------------|------------------|-----------------|-----------------||
 |--9-------(9)-------|------------------|-----------------|-----------------||
 |--------------------|------------------|-----------------|-----------------||
 |--------------------|------------------|-----------------|-----------------||
 |--------------------|------------------|-----------------|-----------------||

Chorus
[G5] [D/F#] 
[E] [E] [E] [E] [E] [E] [E] [E] [E] [E] [E] [E] [E] [E] [E] [E] [E] [E] [E] [E] [E] [E] [E] [E] [E] [E] [E] [E] [E] [E] [E] [E]  
 
 |-----------------|-----------------|-----------------|-----------------|
 |-----------------|-----------------|-----------------|-----------------|
 |-----------------|-----------------|-----------------|-----------------|
 |-----------------|-----------------|-----------------|-----------------|
 |-5-5-5-5-5-5-5-5-|-5-5-5-5-5-5-5-5-|-5-5-5-5-5-5-5-5-|-5-5-5-5-5-5-5-5-|
 |-3-3-3-3-3-3-3-3-|-3-3-3-3-3-3-3-3-|-3-3-3-3-3-3-3-3-|-3-3-3-3-2-2-2-2-|

[E5] [G/B] 
[E] [E] [E] [E] [E] [E] [E] [E] [E] [E] [E] [E] [E] [E] [E] [E] [E] [E] [E] [E] [E] [E] [E] [E] [E] [E] [E] [E] [E] [E] [E] [E]  
 
 |-----------------|-----------------|-----------------|-----------------|
 |-----------------|-----------------|-----------------|-----------------|
 |-----------------|-----------------|-----------------|-----------------|
 |-----------------|-----------------|-----------------|---------5-5-5-5-|
 |-2-2-2-2-2-2-2-2-|-2-2-2-2-2-2-2-2-|-2-2-2-2-2-2-2-2-|-2-2-2-2-2-2-2-2-|
 |-0-0-0-0-0-0-0-0-|-0-0-0-0-0-0-0-0-|-0-0-0-0-0-0-0-0-|-0-0-0-0---------|

[C5]  
[E] [E] [E] [E] [E] [E] [E] [E] [E] [E] [E] [E] [E] [E] [E] [E] [E] [E] [E] [E] [E] [E] [E] [E] [E] [E] [E] [E] [E] [E] [E] [E]  
 
 |-----------------|-----------------|-----------------|-----------------|
 |-----------------|-----------------|-----------------|-----------------|
 |-----------------|-----------------|-----------------|-----------------|
 |-5-5-5-5-5-5-5-5-|-5-5-5-5-5-5-5-5-|-5-5-5-5-5-5-5-5-|-5-5-5-5-5-5-5-5-|
 |-3-3-3-3-3-3-3-3-|-3-3-3-3-3-3-3-3-|-3-3-3-3-3-3-3-3-|-3-3-3-3-3-3-3-3-|
 |-----------------|-----------------|-----------------|-----------------|

[D5] [C5] [B5] 
[E] [E] [E] [E] [E] [E] [E] [E] [E] [E] [E] [E] [E] [E] [E] [E] [E] [E] [E] [E] [E] [E] [E] [E] [E] [E] [E] [E] [E] [E] [E] [E]  
 
 |-----------------|-----------------|-----------------|-----------------||
 |-----------------|-----------------|-----------------|-----------------||
 |-----------------|-----------------|-----------------|-----------------||
 |-7-7-7-7-7-7-7-7-|-7-7-7-7-7-7-7-7-|-7-7-7-7-7-7-7-7-|-5-5-5-5-4-4-4-4-||
 |-5-5-5-5-5-5-5-5-|-5-5-5-5-5-5-5-5-|-5-5-5-5-5-5-5-5-|-3-3-3-3-2-2-2-2-||
 |-----------------|-----------------|-----------------|-----------------||

Interlude
[E5] W +W [C5] W +W
 
 |--------------|--------------|--------------|---------------|
 |--------------|--------------|--------------|---------------|
 |--------------|--------------|--5-----------|-(5)-----------|
 |--2-----------|-(2)----------|--5-----------|-(5)-----------|
 |--2-----------|-(2)----------|--3-----------|-(3)-----------|
 |--0-----------|-(0)----------|--------------|---------------|

|
| Gtr IV
| H H H Q Q +H Q Q Q Q Q Q
 
 |-12----12-----|-10-----7--8--|-(8)-------7--|--8---7--5--3--|
 |--------------|--------------|--------------|---------------|
 |--9----(9)----|--------------|--------------|---------------|
 |--------------|--------------|--------------|---------------|
 |--------------|--------------|--------------|---------------|
 |--------------|--------------|--------------|---------------|

[A5] W +W [D5] W [Eb5]W
 
 |--------------|--------------|--------------|-------------|
 |--------------|--------------|--------------|-------------|
 |--2-----------|-(2)----------|--7-----------|-8-----------|
 |--2-----------|-(2)----------|--7-----------|-8-----------|
 |--0-----------|-(0)----------|--5-----------|-6-----------|
 |--------------|--------------|--------------|-------------|

|
| H H H Q Q +H Q Q Q Q Q Q
 
 |-12----12-----|-10-----7--8--|-(8)-------7--|-8--7--5--3--|
 |--------------|--------------|--------------|-------------|
 |--9----(9)----|--------------|--------------|-------------|
 |--------------|--------------|--------------|-------------|
 |--------------|--------------|--------------|-------------|
 |--------------|--------------|--------------|-------------|

[E5] [C5] 
[E] [E] [E] [E] [E] [E] [E] [E] [E] [E] [E] [E] [E] [E] [E] [E] [E] [E] [E] [E] [E] [E] [E] [E] [E] [E] [E] [E] [E] [E] [E] [E]  
 
 |--------------------|------------------|-------------------|-----------------|
 |--------------------|------------------|-------------------|-----------------|
 |--------------------|------------------|--5--5-5-5-5-5-5-5-|-5-5-5-5-5-5-5-5-|
 |--2-2-2-2--2--2-2-2-|--2-2-2-2-2-2-2-2-|--5--5-5-5-5-5-5-5-|-5-5-5-5-5-5-5-5-|
 |--2-2-2-2--2--2-2-2-|--2-2-2-2-2-2-2-2-|--3--3-3-3-3-3-3-3-|-3-3-3-3-3-3-3-3-|
 |--0-0-0-0--0--0-0-0-|--0-0-0-0-0-0-0-0-|-------------------|-----------------|

|
| H H H Q Q +H Q Q Q Q Q Q
 
 |-12-------12--------|-10-------7---8---|-(8)-----------7---|-8---7---5---3---|
 |--------------------|------------------|-------------------|-----------------|
 |--9-------(9)-------|------------------|-------------------|-----------------|
 |--------------------|------------------|-------------------|-----------------|
 |--------------------|------------------|-------------------|-----------------|
 |--------------------|------------------|-------------------|-----------------|

[A5] [D5] [Eb5] 
[E] [E] [E] [E] [E] [E] [E] [E] [E] [E] [E] [E] [E] [E] [E] [E] [E] [E] [E] [E] [E] [E] [E] [E] [E] [E] [E] [E] [E] [E] [E] [E]  
 
 |--------------------|------------------|-------------------|-----------------||
 |--------------------|------------------|-------------------|-----------------||
 |--2-2-2-2--2--2-2-2-|--2-2-2-2-2-2-2-2-|--7--7-7-7-7-7-7-7-|-8-8-8-8-8-8-8-8-||
 |--2-2-2-2--2--2-2-2-|--2-2-2-2-2-2-2-2-|--7--7-7-7-7-7-7-7-|-8-8-8-8-8-8-8-8-||
 |--0-0-0-0--0--0-0-0-|--0-0-0-0-0-0-0-0-|--5--5-5-5-5-5-5-5-|-6-6-6-6-6-6-6-6-||
 |--------------------|------------------|-------------------|-----------------||

|
| H H H Q Q +H Q Q Q Q Q Q
 
 |-12-------12--------|-10-------7---8---|-(8)-----------7---|-8---7---5---3---||
 |--------------------|------------------|-------------------|-----------------||
 |--9-------(9)-------|------------------|-------------------|-----------------||
 |--------------------|------------------|-------------------|-----------------||
 |--------------------|------------------|-------------------|-----------------||
 |--------------------|------------------|-------------------|-----------------||

Chorus
[G5]E E E E E E E E E E E E E E E E W +H Q [D/F#]Q
 
 |-----------------|-----------------|----------|--------------|
 |-----------------|-----------------|----------|--------------|
 |-----------------|-----------------|----------|--------------|
 |-----------------|-----------------|----------|--------------|
 |-5-5-5-5-5-5-5-5-|-5-5-5-5-5-5-5-5-|-5--------|-(5)----5--5--|
 |-3-3-3-3-3-3-3-3-|-3-3-3-3-3-3-3-3-|-3--------|-(3)----3--2--|

[E5] [G/B]  
 
 PM------------------------------------------------------------------|

[E] [E] [E] [E] [E] [E] [E] [E] [E] [E] [E] [E] [E] [E] [E] [E] [E] [E] [E] [E] [E] [E] [E] [E] [E] [E] [E] [E] [E] [E] [E] [E]  
 
 |-----------------|-----------------|-----------------|-----------------|
 |-----------------|-----------------|-----------------|-----------------|
 |-----------------|-----------------|-----------------|-----------------|
 |-----------------|-----------------|-----------------|---------5-5-5-5-|
 |-2-2-2-2-2-2-2-2-|-2-2-2-2-2-2-2-2-|-2-2-2-2-2-2-2-2-|-2-2-2-2-2-2-2-2-|
 |-0-0-0-0-0-0-0-0-|-0-0-0-0-0-0-0-0-|-0-0-0-0-0-0-0-0-|-0-0-0-0---------|

[C5]  
 
 PM------------------------------------------------------------------|

[E] [E] [E] [E] [E] [E] [E] [E] [E] [E] [E] [E] [E] [E] [E] [E] [E] [E] [E] [E] [E] [E] [E] [E] [E] [E] [E] [E] [E] [E] [E] [E]  
 
 |-----------------|-----------------|-----------------|-----------------|
 |-----------------|-----------------|-----------------|-----------------|
 |-----------------|-----------------|-----------------|-----------------|
 |-5-5-5-5-5-5-5-5-|-5-5-5-5-5-5-5-5-|-5-5-5-5-5-5-5-5-|-5-5-5-5-5-5-5-5-|
 |-3-3-3-3-3-3-3-3-|-3-3-3-3-3-3-3-3-|-3-3-3-3-3-3-3-3-|-3-3-3-3-3-3-3-3-|
 |-----------------|-----------------|-----------------|-----------------|

[D5] [C5]  
 
 PM--------------------------------------------------------|

[E] [E] [E] [E] [E] [E] [E] [E] [E] [E] [E] [E] [E] [E] [E] [E] [E] [E] [E] [E] [E] [E] [E] [E] [E] [E] [E] [E] [E] [E] [E] [E]  
 
 |-----------------|-----------------|-----------------|-----------------||
 |-----------------|-----------------|-----------------|-----------------||
 |-----------------|-----------------|-----------------|-----------------||
 |-7-7-7-7-7-7-7-7-|-7-7-7-7-7-7-7-7-|-7-7-7-7-7-7-7-7-|-5-5-5-5-5-5-5-5-||
 |-5-5-5-5-5-5-5-5-|-5-5-5-5-5-5-5-5-|-5-5-5-5-5-5-5-5-|-3-3-3-3-3-3-3-3-||
 |-----------------|-----------------|-----------------|-----------------||

Outro Chorus
[G5] [D/F#] 
[E] [E] [E] [E] [E] [E] [E] [E] [E] [E] [E] [E] [E] [E] [E] [E] [E] [E] [E] [E] [E] [E] [E] [E] [E] [E] [E] [E] [E] [E] [E] [E]  
 
 |-----------------|-----------------|-----------------|-----------------|
 |-----------------|-----------------|-----------------|-----------------|
 |-----------------|-----------------|-----------------|-----------------|
 |-----------------|-----------------|-----------------|-----------------|
 |-5-5-5-5-5-5-5-5-|-5-5-5-5-5-5-5-5-|-5-5-5-5-5-5-5-5-|-5-5-5-5-5-5-5-5-|
 |-3-3-3-3-3-3-3-3-|-3-3-3-3-3-3-3-3-|-3-3-3-3-3-3-3-3-|-3-3-3-3-2-2-2-2-|

[E5] [G/B] 
[E] [E] [E] [E] [E] [E] [E] [E] [E] [E] [E] [E] [E] [E] [E] [E] [E] [E] [E] [E] [E] [E] [E] [E] [E] [E] [E] [E] [E] [E] [E] [E]  
 
 |-----------------|-----------------|-----------------|-----------------|
 |-----------------|-----------------|-----------------|-----------------|
 |-----------------|-----------------|-----------------|-----------------|
 |-----------------|-----------------|-----------------|---------5-5-5-5-|
 |-2-2-2-2-2-2-2-2-|-2-2-2-2-2-2-2-2-|-2-2-2-2-2-2-2-2-|-2-2-2-2-2-2-2-2-|
 |-0-0-0-0-0-0-0-0-|-0-0-0-0-0-0-0-0-|-0-0-0-0-0-0-0-0-|-0-0-0-0---------|

[C5]  
[E] [E] [E] [E] [E] [E] [E] [E] [E] [E] [E] [E] [E] [E] [E] [E] [E] [E] [E] [E] [E] [E] [E] [E] [E] [E] [E] [E] [E] [E] [E] [E]  
 
 |-----------------|-----------------|-----------------|-----------------|
 |-----------------|-----------------|-----------------|-----------------|
 |-----------------|-----------------|-----------------|-----------------|
 |-5-5-5-5-5-5-5-5-|-5-5-5-5-5-5-5-5-|-5-5-5-5-5-5-5-5-|-5-5-5-5-5-5-5-5-|
 |-3-3-3-3-3-3-3-3-|-3-3-3-3-3-3-3-3-|-3-3-3-3-3-3-3-3-|-3-3-3-3-3-3-3-3-|
 |-----------------|-----------------|-----------------|-----------------|

[D5] [C5] [B5] 
[E] [E] [E] [E] [E] [E] [E] [E] [E] [E] [E] [E] [E] [E] [E] [E] [E] [E] [E] [E] [E] [E] [E] [E] [E] [E] [E] [E] [E] [E] [E] [E]  
 
 |-----------------|-----------------|-----------------|-----------------||
 |-----------------|-----------------|-----------------|-----------------||
 |-----------------|-----------------|-----------------|-----------------||
 |-7-7-7-7-7-7-7-7-|-7-7-7-7-7-7-7-7-|-7-7-7-7-7-7-7-7-|-5-5-5-5-4-4-4-4-||
 |-5-5-5-5-5-5-5-5-|-5-5-5-5-5-5-5-5-|-5-5-5-5-5-5-5-5-|-3-3-3-3-2-2-2-2-||
 |-----------------|-----------------|-----------------|-----------------||

[End]  
[E5]>
W +W +W +W
 
 |----------|------------|------------|--------*|
 |----------|------------|------------|--------*|
 |----------|------------|------------|--------*|
 |-2--------|-(2)--------|-(2)--------|-(2)----*|
 |-2--------|-(2)--------|-(2)--------|-(2)----*|
 |-0--------|-(0)--------|-(0)--------|-(0)----*|

Duration Legend
 
 ---------------
 W - whole; H - half; Q - quarter; E - 8th; S - 16th; T - 32nd; X - 64th; a - acciaccatura

+ - note tied to previous; . - note dotted; .. - note double dotted
Uncapitalized letters represent notes that are staccato (1/2 duration)
Irregular groupings are notated above the duration line
Duration letters will always appear directly above the note/fret number it represents the
duration for. Duration letters with no fret number below them represent rests. Multi-
bar rests are notated in the form Wxn, where n is the number of bars to rest for. Low
melody durations appear below the staff
Tablature Legend
 
 ----------------

h - hammer-on
p - pull-off
b - bend
pb - pre-bend
r - bend release (if no number after the r, then release immediately)
/\ - slide into or out of (from/to "nowhere")
s - legato slide
S - shift slide
- natural harmonic
(n) - artificial harmonic
n(n) - tapped harmonic
~ - vibrato
tr - trill
T - tap
TP - trem. picking
PM - palm muting
\n/ - tremolo bar dip; n = amount to dip
\n - tremolo bar down
n/ - tremolo bar up
/n\ - tremolo bar inverted dip
= - hold bend; also acts as connecting device for hammers/pulls
- volume swell (louder/softer)
x - on rhythm slash represents muted slash
o - on rhythm slash represents single note slash
Misc Legend
 
 -----------

| - bar
|| - double bar
||o - repeat start
o|| - repeat end
*| - double bar (ending)
: - bar (freetime)
$ - Segno
& - Coda
Tempo markers - = BPM(8/16=s8/s16), where s8 = swing 8ths, s16 = swing 16ths
***************************************************************************************
* Generated using Power Tab Editor by Brad Larsen - http://powertab.guitarnetwork.org *
***************************************************************************************

Important: The song above is NOT stored on the Chordie server. The original song is hosted at www.guitaretab.com. Chordie works as a search engine and provides on-the-fly formatting. Chordie does not index songs against artists'/composers' will. To remove this song please click here.

Text color:
Chord color:
Chord grids: 
Font size:    
Page size: 

A5 B B5 C5 D/F# D5 E E5 Eb5 G/B G5
Rate #1 of 4 versions

Jango Player

Login - add to songbook

SHARE PAGE  




You need to log in to post comments