Guitar Tabs, Chords and Lyrics
Server problems seems to be fixed. Chordie has been experiencing problems with songs disappearing. These issues now seems to be fixed, but still verifying the fix. If you find anything strange, please email admin@chordie.com.


I Can't Do the One-Two Step  All Time Low

intro: after the 2nd F# it goes to this:| |
Ab7sus(e-x-)Ab7sus Ab7sus Ab7sus A# G# A# F# Absus Absus Absus Absus A# G# A# F# d-3
[(b-7-)](g-6-) [a-4]E-2
[(d-4-)]  
[(a-6-)]  
[(E-4-)]  
[Ab7sus]Front page of the magazine said,
[Ab]"Don't believe a word you read, I[B]'m just telling lies - Just telling lies[F#]"[F#] [G#] [G#] [G#] [G#] [B] [B]
[Ab7sus]Fall short this time of goals you ro[Ab]se to meet that night,
Don't wo[B]rry yourselves - worry yourselves,
We can car[C#]ry ourselves - carry ourselves..
 
 e--------------------------------------------------|
 b--------------------------------------------------|
 g-6---6---6----6---6---6----6---6---6----6---6---6-|
 d---4---4--------4---4--------6---6--------6---6---|1X (1X solo 1X with lyrics)
 a---6---6--------6---6--------6---6--------6---6---|
 E--------------------------------------------------|

(these vocals over the above tab)
How does it feel to wake up knowing that you're playing on something
that could have been nothing but a
 
 e-----------------------------------------------------------|
 b-----------------------------------------------------------|
 g-6---6---6----6---6---6----6---6---6----6-6666666666666666-|
 d---4---4--------4---4--------6---4--------4444444466666666-|
 a---6---6--------6---6--------6---6--------6666666666666666-|
 E-----------------------------------------------------------|

(these vocals over the above tab)
sad, sad song,
about a group of kids who lost it all to the great, big city?
[B] Are we both crazy?
[G#]Or are we searching for mor[F#]e than life behind the s[C#]ame four walls
[B]Pour me another drink I'll[F#] commit myself to it and[C#] lose track of reason to
believe in nothing.
[F#]I know [G#m]this is ridi[B]culous, that's ju[C#]st like me
[F#]Make the most of living while yo[G#m]u're young and have the chance to take your c[B]hances
[C#]'Cause I've got to, I've got to g[B]o
[F#5]Don't be afraid I've got your ba[G#5]ck when times get rough and bring you do[B5]wn [F#] [G#] [G#] [G#] [G#] [B] [B]
[F#]Maybe you don't understand we've g[C#]ot to take this or break this off,
it's [G#]all up to us and you be[B]tter better better better better believe
[B]We're just so crazy
[G#]Or are we searching for mor[F#]e than life behind the s[C#]ame four walls
[B]Pour me another drink I'll[F#] commit myself to it and[C#] lose track of reason to
believe in nothing.
[F#]I know [G#m]this is ridi[B]culous, that's ju[C#]st like me
[F#]Make the most of living while yo[G#m]u're young and have the chance to take your c[B]hances
[C#]'Cause I've got to, I've got to g[B]o
 
 e--------------------------------------------------|
 b--------------------------------------------------|
 g-6---6---6----6---6---6----6---6---6----6---6---6-|
 d---4---4--------4---4--------6---6--------6---6---| 2X then
 a---6---6--------6---6--------6---6--------6---6---|
 E--------------------------------------------------|
 e----------------------------|
 b----------------------------|
 g-6---6---6-6666666666666666-|
 d---4---4---4444444466666666-|
 a---6---6---6666666666666666-|
 E----------------------------|

[F#]I know [G#m]this is ridi[B]culous, that's ju[C#]st like me
[d-3] 
[a-4] 
[F#]Make the most of living while you're [E-1]young and have the chance to take your c[B]hances
F[C#]uck regrets and lets burn this city down.

Important: The song above is NOT stored on the Chordie server. The original song is hosted at www.guitaretab.com. Chordie works as a search engine and provides on-the-fly formatting. Chordie does not index songs against artists'/composers' will. To remove this song please click here.

Text color:
Chord color:
Chord grids: 
Font size:    
Page size: 

Ab Ab7sus B B5 C# F# F#5 G# G#5 G#m
Rate #1 of 1 versions

Login - add to songbook

SHARE PAGE  



You need to log in to post comments