Guitar Tabs, Chords and Lyrics
Server problems seems to be fixed. Chordie has been experiencing problems with songs disappearing. These issues now seems to be fixed, but still verifying the fix. If you find anything strange, please email admin@chordie.com.


Interlude   All Time Low

 
 -------------------------------------------------------------------------------

 


 INTERLUDE - All Time Low


 

 
 -------------------------------------------------------------------------------

 


 


 Hey UG, this is my tab of All Time Low's 'Interlude' from their debut album The Party Scene.


 This is almost 100% correct, and sounds fine when i play along. Any questions or comments


 or fixtures that need to be made to this tab, please email me at; thethom1999@hotmail.com.


 Don't forget to comment and rate this tab :)


 


 Eq =


 


 Treble - 7.5


 


 Mid - 5.5


 


 [Bass] [-] [4]  


 Interlude - All Time Low


 


 Album: The Party Scene


 


 Length: 1:50


 


 Tabbed by: thethom1999


 Email: thethom1999@hotmail.com


 


 Tuning: Standard


 


 

 
 -------------------------------------------------------------------------------------------

 


 


 (Clean) (Add a small amount of delay) (Use both rhythm and treble pickups) (Let


 everything ring out)


 


 

 
 e|---------------------------------------------------------------------------|
 B|---------------------------------------------------------------------------|
 G|--14---14-14\---9-9--9-9/-11---6--6-6-6/--7--7--7-7------------------------|
 D|---0----0--0----0-0--0-0-------0--0-0-0---0--0--0-0--x6--------------------|
 A|---0----0--0----0-0--0-0-------0--0-0-0---0--0--0-0------------------------|
 E|---------------------------------------------------------------------------|
 e|---------------------------------------------------------------------------|
 B|---------------------------------------------------------------------------|
 G|-6-6-6-7-7-7--9-9--11-11-11--9-9-9-9-9--14-14-14--9-9-9-9-9-6-6-6-9-9-9-9-9|
 D|-0-0-0-0-0-0--0-0---0--0--0--0-0-0-0-0---0--0--0--0-0-0-0-0-0-0-0-0-0-0-0-0|
 A|-0-0-0-0-0-0--0-0---0--0--0--0-0-0-0-0---0--0--0--0-0-0-0-0-0-0-0-0-0-0-0-0|
 E|---------------------------------------------------------------------------|
 e|---------------------------------------------------------------------------|
 B|---------------------------------------------------------------------------|
 G|--14---14-14\---9-9--9-9/-11---6--6-6-6/--7--7--7-7------------------------|
 D|---0----0--0----0-0--0-0-------0--0-0-0---0--0--0-0--x4--------------------|
 A|---0----0--0----0-0--0-0-------0--0-0-0---0--0--0-0------------------------|
 E|---------------------------------------------------------------------------|
 e|---------------------------------------------------------------------------|
 B|---------------------------------------------------------------------------|
 G|-6-6-6-7-7-7--9-9--11-11-11--9-9-9-9-9--14-14-14--9-9-9-9-9-6-6-6-9-9-9-9-9|
 D|-0-0-0-0-0-0--0-0---0--0--0--0-0-0-0-0---0--0--0--0-0-0-0-0-0-0-0-0-0-0-0-0|
 A|-0-0-0-0-0-0--0-0---0--0--0--0-0-0-0-0---0--0--0--0-0-0-0-0-0-0-0-0-0-0-0-0|
 E|---------------------------------------------------------------------------|

 


 


 (Distortion) (Treble Pickup)


 


 

 
 e|---------------------------------------------------------------------------|
 B|---------------------------------------------------------------------------|
 G|-11-11-11-11-11/--14-14-14-14\--6-6-6-6-6/--7-7-7-7------------------------|
 D|--x--x--x--x--x----x--x--x--x---x-x-x-x-x---x-x-x-x--x5--------------------|
 A|--9--9--9--9--9/--12-12-12-12\--4-4-4-4-4/--5-5-5-5------------------------|
 E|---------------------------------------------------------------------------|
 e|---------------------------------------------------------------------------|
 B|---------------------------------------------------------------------------|
 G|-11-11-11-11-11/--14-14-14-14\--6/--7/--9~---------------------------------|
 D|--x--x--x--x--x----x--x--x--x---x/--x---x~---------------------------------|
 A|--9--9--9--9--9/--12-12-12-12\--4/--5/--7~---------------------------------|
 E|---------------------------------------------------------------------------|


Important: The song above is NOT stored on the Chordie server. The original song is hosted at www.guitaretab.com. Chordie works as a search engine and provides on-the-fly formatting. Chordie does not index songs against artists'/composers' will. To remove this song please click here.

This song is displayed as text-only. Transposing and tuning is only available for chordpro-songs.
Rate #1 of 2 versions

Jango Player

Login - add to songbook

SHARE PAGE  




You need to log in to post comments