Guitar Tabs, Chords and Lyrics
Server problems seems to be fixed. Chordie has been experiencing problems with songs disappearing. These issues now seems to be fixed, but still verifying the fix. If you find anything strange, please email admin@chordie.com.


Backseat Serenade  All Time Low

I'm pretty sure this is how he plays it in this video
https://www.youtube.com/watch?v=CrjvHx-sIb4
[G] [Dm] [C] [Em] [F] [D] [Em7]  
 
 e |---3---| |---1---| |---0---| |---0---| |---1---| |---2---| |---3---|
 B |---3---| |---3---| |---1---| |---0---| |---1---| |---3---| |---3---|
 G |---0---| |---2---| |---0---| |---0---| |---2---| |---2---| |---0---|
 D |---0---| |---0---| |---2---| |---2---| |---3---| |---0---| |---2---|
 A |---2---| |---0---| |---3---| |---2---| |---3---| |---0---| |---2---|
 E |---3---| x-------| |---0---| |---0---| |---1---| x-------| |---0---|

Cadd9 C5 D5 *Em B5
 
 e |---3---| x-------| x-------| x-------| x-------|
 B |---3---| x-------| x-------| x-------| x-------|
 G |---0---| x-------| x-------| x-------| x-------|
 D |---2---| |---5---| |---7---| |---5---| |---4---|
 A |---3---| |---3---| |---5---| |---7---| |---2---|
 E |---0---| x-------| x-------| x-------| x-------|

[G] Lazy lover
Find a[Dm] place for me again
You[C] felt it once before
I know you[Em] did
I could s[F]ee it[C]
[G] Whiskey Princess
Drink me[Dm] under, pull me in
You[C] had me at come over boy
I[Em] need a friend
I un[F]derstand[C] [D]
[D]Backseat s[Em7]erenade
Dizzy h[Cadd9]urricane
Oh [G]god, I'm sick of sleeping a[D]lone
You're salty like a [Em7]summer day
Kiss the [Cadd9]sweat away
To your r[D]adio
[D]Backseat s[Em7]erenade
Little [Cadd9]hand grenade
Oh [G]god, I'm sick of sleeping [D]alone
You're salty like a [Em7]summer day
Kiss the [Cadd9]sweat away
To your r[D]adio [Cadd9]
[G] You take me over
I throw you[Dm] up against the wall
We've[C] seen it all before
But this one's [Em]different
It's [F]deliberate[C]
[G] You send me reeling
Calling[Dm] out to you for more
The [C]value of this moment lives in[Em] metaphor
Yeah, [F]through it all[C] [D]
[D]Backseat s[Em7]erenade
Dizzy h[Cadd9]urricane
Oh [G]god, I'm sick of sleeping a[D]lone
You're salty like a [Em7]summer day
Kiss the [Cadd9]sweat away
To your r[D]adio
[D]Backseat s[Em7]erenade
Little [Cadd9]hand grenade
Oh [G]god, I'm sick of sleeping [D]alone
You're salty like a [Em7]summer day
Kiss the [Cadd9]sweat away
To your r[D]adio
 
 e |------------------------------------------------------|
 B |------0-----0-----------------0-----0-----------------|
 G |------------------0-----0-----------------0-----0-----| x2
 D |----5-----5-----7-----7-----5-----5-----4-----4-------|
 A |--3-----3-----5-----5-----7-----7-----2-----2---------|
 E |------------------------------------------------------|

C5 D5 *Em B5 C5 D5
Backseat s[Em7]erenade
Dizzy h[Cadd9]urricane
Oh [G]god, I'm sick of sleeping a[D]lone
You're salty like a [Em7]summer day
Kiss the [Cadd9]sweat away
To your r[D]adio
[D]Backseat s[Em7]erenade
Little [Cadd9]hand grenade
Oh [G]god, I'm sick of sleeping [D]alone
You're salty like a [Em7]summer day
Kiss the [Cadd9]sweat away
To your r[D]adio
[Em7] [Cadd9] [D] 

Important: The song above is NOT stored on the Chordie server. The original song is hosted at www.guitaretab.com. Chordie works as a search engine and provides on-the-fly formatting. Chordie does not index songs against artists'/composers' will. To remove this song please click here.

Text color:
Chord color:
Chord grids: 
Font size:    
Page size: 

C Cadd9 D Dm Em Em7 F G
Rate #1 of 19 versions

Login - add to songbook

SHARE PAGE  



You need to log in to post comments