Guitar Tabs, Chords and Lyrics
Server problems seems to be fixed. Chordie has been experiencing problems with songs disappearing. These issues now seems to be fixed, but still verifying the fix. If you find anything strange, please email admin@chordie.com.


Thanks to You  All Time Low

 
 -------------------------------------------------------------------------------

Thanks To You - All Time Low
 
 -------------------------------------------------------------------------------

Tuning: Standart
Chords used:
[D] [Bm] [E] [G] [Am] [A]  
 
 e|--5----2-----7----3----5----5-|
 B|--5----3-----7----3----5----5-|
 G|--7----4-----9----4----5----6-|
 D|--7----4-----9----5----7----7-|
 A|--5----2-----7----5----7----7-|
 E|--x----x-----x----3----5----5-|

Intro:
 
 e|---------------------------------------------------|
 B|---2-3-2-3-2----2-3-2----2-3-2-3-2----2-3-2--------|
 G|----------------------------------------------2----|
 D|-------------4--------4------------4--------4------|
 e|---------------------------------------------------|
 B|---2-3-2-3-2----2-3-2-----5-3---5-3----------------|
 G|------------------------------2-----2-0-2----------|
 D|-------------4--------4----------------------------|

Please use Powerchords, merely sounds better (:
VERSE:
[Bm]Thanks to you, I'm moving [D]on
Chasing out my [G]skeletons and the troubles they have caused[G] [(A)]
[Bm]And all thanks to you
I'm turning [D]over the pages in this book of[G] revelations about self-medi[G]ca[(A)]tion
[E]But there's this ringing in my [Bm]hea[Am]d (who said it was gonna be easy?)
[E]As the ghost of you hangs [A]over my bed
CHORUS:
(Thanks to you) [D]I'm not myself
[Bm]I'm all strung out, [A]that much is [G]clear
(And I'll spend my)
[D]Whole life-time with [Bm]your life-line wrapped [A]around my [G]throat
Thanks to [E]you[A]
All thanks to you
(INTRO)
VERSE:
[Bm]Thanks to you, I've lost my [D]touch
I struggle to find the [G]sense in making sense
And giving a semblance of a fuck[G] [(A)]
[Bm]And thanks to you, for all the [D]nightmares
There's not a night that I sleep [G]quiet and complacent without my medicat[G]io[(A)]n
[E]'Cause there's this ringing in my [Bm]hea[Am]d (who said it was gonna be easy?)
[E]As the ghost of you hangs [A]over my bed
CHORUS:
(Thanks to yo[D]u) I'm not myself
[Bm]I'm all strung out, [A]that much is [G]clear
(And I'll spend my)
[D]Whole life-time with [Bm]your life-line wrapped [A]around my [G]throat
Thanks to [E]you[A]
All thanks to you
SOLO:
[D] [Bm] [Am]  
[E]But there's this ringing in my [Bm]hea[Am]d,
[E]as the ghost of you hangs o[A]ver my bed
CHORUS:
(Thanks to yo[D]u) I'm not myself
[Bm]I'm all strung out, [A]that much is [G]clear
(And I'll spend my)
[D]Whole life-time with [Bm]your life-line wrapped [A]around my [G]throat
Thanks to [D]you
Thanks to [Bm]you
Thanks to [A]you
All thanks to [G]you

Important: The song above is NOT stored on the Chordie server. The original song is hosted at www.guitaretab.com. Chordie works as a search engine and provides on-the-fly formatting. Chordie does not index songs against artists'/composers' will. To remove this song please click here.

Text color:
Chord color:
Chord grids: 
Font size:    
Page size: 

A Am Bm D E G
Rate #1 of 5 versions

Jango Player

Login - add to songbook

SHARE PAGE  




You need to log in to post comments