Guitar Tabs, Chords and Lyrics
Server problems seems to be fixed. Chordie has been experiencing problems with songs disappearing. These issues now seems to be fixed, but still verifying the fix. If you find anything strange, please email admin@chordie.com.


Therapy  All Time Low

INTRO
[A] [D] [F#m] [E] [D]  
 
 |------------------|------------------|-------------------|-------------------|
 |-----2h3-2----0---|-----2h3-2----0---|-----2---------2---|-----2h3-2----0----|
 |---2--------2---2-|---2--------2---2-|---2---2-----2---2-|---2--------2---2--|
 |------------------|-0----------------|-------------------|-0-----------------|
 |-0----------------|------------------|-------------------|-------------------|
 |------------------|------------------|-2---------0-------|-------------------|

VERSE
Same pattern. Start strumming on the *F#m
My [A]ship went down in a [D]sea of sound
When I [F#m]woke up [E]alone I ha[D]d everything
A [A]handful of moments I [D]wished I could change
And a [F#m]tongue like a [E]nightmare tha[D]t cut like a blade
In a [A]city of fools I was [D]careful and cool
But they [F#m]tore me a[E]part like a[D] hurricane
A [A]handful of moments
D *F#m E D
I wish I could change but I was carried away
CHORUS
Give me t[A]herapy
I'm a [E]walking trave[F#m]sty
But I'm [D]smiling at everything
[A]Therapy, you were [E]never a friend to [F#m]me
And you can [D]keep all your misery.
[A] [D] [F#m] [E] [D]  
 
 |-----------------|-----------------|-------------------|------------------|
 |-----2h3-2---0---|-----2h3-2---0---|-----2---------2---|-----2h3-2---0----|
 |---2-----------2-|---2-----------2-|---2---2-----2---2-|---2-----------2--|
 |-----------------|-0---------------|-------------------|-0----------------|
 |-0---------------|-----------------|-------------------|------------------|
 |-----------------|-----------------|-2---------0-------|------------------|

VERSE 2
(Same pattern above)
My [A]lungs gave out
As i [D]faced the crowd
I think that [F#m]keeping this [E]up could be [D]dangerous
I'm [A]flesh and bone
I'm a r[D]olling stone
and the [F#m]experts [E]say I'm de[D]lirious
CHORUS
(powerchords)
Give me t[A]herapy
I'm a [E]walking trave[F#m]sty
But I'm [D]smiling at everything
[A]Therapy, you were [E]never a friend to [F#m]me
And you can [D]take back your misery
BRIDGE
[Bm]Arrogant boy, love your[A]self so no one has to
They're [E]better off without you
(They're [E4]better off with[E]out you)
[Bm]Arrogant boy, cause a [A]scene like you're supposed to
They'll [F#m]fall asleep without you
You're [D]lucky if your memory rem[A]ains
CHORUS
Give me t[A]herapy
I'm a [E]walking trave[F#m]sty
But I'm [D]smiling at everything
[A]Therapy, you were [E]never a friend to [F#m]me
And you can [D]take back your misery
[A]Therapy
I'm a [E]walking trave[F#m]sty
But I'm [D]smiling at everything
[A]Therapy, you were [E]never a friend to [F#m]me
And you can [D]choke on your misery.
OUTRO
[A] [D] [F#m] [E] [D]  
 
 |-----------------|-----------------|---------------------0-|
 |-----2h3-2---0---|-----2h3-2---0---|-----2---------2-----3-|
 |---2-----------2-|---2-----------2-|---2---2-----2---2---2-|
 |-----------------|-0---------------|---------------------0-|
 |-0---------------|-----------------|-----------------------|
 |-----------------|-----------------|-4---------2-----------|


Important: The song above is NOT stored on the Chordie server. The original song is hosted at www.guitaretab.com. Chordie works as a search engine and provides on-the-fly formatting. Chordie does not index songs against artists'/composers' will. To remove this song please click here.

Text color:
Chord color:
Chord grids: 
Font size:    
Page size: 

A Bm D E E4 F#m
Rate #1 of 13 versions

Jango Player

Login - add to songbook

SHARE PAGE  




You need to log in to post comments