Guitar Tabs, Chords and Lyrics
Server problems seems to be fixed. Chordie has been experiencing problems with songs disappearing. These issues now seems to be fixed, but still verifying the fix. If you find anything strange, please email admin@chordie.com.


Nothing Left  Allison Weiss

Nothing Left by Allison Weiss
Tabbed by Eilidh Power
Standard tuning.
Chords used in verses:
C F* Am G
 
 e|-8-----8-----5-----3-------------------------------------------|
 B|-8-----8-----5-----3-------------------------------------------|
 G|-9-----10----5-----4-------------------------------------------|
 D|-10----10----7-----5-------------------------------------------|
 A|-10----8-----7-----5-------------------------------------------|
 E|-8-----8-----5-----3-------------------------------------------|

Chords used in chorus:
[Am] [G] [F] [C] [Em] [Fmaj7]  
 
 e|-0-----3-----1-----0-----0-----0-------------------------------|
 B|-1-----3-----1-----1-----0-----1-------------------------------|
 G|-2-----0-----2-----0-----0-----2-------------------------------|
 D|-2-----0-----3-----2-----2-----3-------------------------------|
 A|-0-----2-----3-----3-----2-----3-------------------------------|
 E|-0-----3-----1-----3-----0-----x-------------------------------|

Verse 1
It's not what I [C]want anymore, it's not what I want anymore
F*
I'm fighting the feelings in my mind, trying to see it from your side.
It's not what I [C]want anymore, it's not what I want anymore
F*
I'm wating for answers I wont get, I'm making excuses I'll regret.
[Am]Stand closer,[G] get nervous.
Verse 2
It's not what I [C]want anymore, it's not what I want anymore
F*
I think it's the endings that I hate, I think it's the changes in your face.
It's not what I [C]know anymore, it's not what I know anymore
F*
I'm missing the bridges that you burned, you won't make me happy like we were.
[Am]Stand closer, [G]get nervous. [Am]And I'm hopeless, [G]to see you through.
Chorus 1
[Am]And when you're [G]next to me, [F]you get what's [C]left [Em]of me[Am],
Why can't I [G]get what's left of you[F]?
[Am]But when you're [G]next to me, [F]you get what's[C] left [Em]of me,[Am]
Why can't I [G]get what's left of you[F]?
There's nothing left of [C]you, nothing left of [Fmaj7]you.
Verse 3
It's not [C]what I want anymore, it's not what I want anymore
F*
But you are the only thing I see, and this is the only thing I need.
[Am]Stand closer, [G]can't do this. [Am]And I'm reckless, [G]and you're through.
Chorus 2
[Am]And when you're[G] next to me,[F] you get what's[C] left[Em] of m[Am]e,
Why can't I[G] get what's left of you[F]?
[Am]But when you're[G] next to me,[F] you get what's[C] left[Em] of m[Am]e,
Why can't I[G] get what's left of you[F]?
There's nothing left of[C] you, nothing left nothing left of[Fmaj7] you,
Nothing left nothing left of[Am] you, nothing left nothing left of yo[F]u,
Nothing left, nothing left oh
[Am]And when you're[G] next to me, [F]you get what's[C] left[Em] of m[Am]e,
Why can't I[G] get what's left of [F]you?
[Am]But when you're[G] next to me, [F]you get what's[C] left[Em] of m[Am]e,
Why can't I [G]get what's left of [F]you? Why can't I [G]get what's left of [F]you?
There's nothing left of [C]you, nothing left nothing left of [Fmaj7]you,
Nothing left nothing left of[Am] you, nothing left nothing left of yo[F]u,
Nothing left, nothing left of you[C].

Important: The song above is NOT stored on the Chordie server. The original song is hosted at www.guitaretab.com. Chordie works as a search engine and provides on-the-fly formatting. Chordie does not index songs against artists'/composers' will. To remove this song please click here.

Text color:
Chord color:
Chord grids: 
Font size:    
Page size: 

Am C Em F Fmaj7 G
Rate #0 of 3 versions

Jango Player

Login - add to songbook

SHARE PAGE  




You need to log in to post comments