Guitar Tabs, Chords and Lyrics
Server problems seems to be fixed. Chordie has been experiencing problems with songs disappearing. These issues now seems to be fixed, but still verifying the fix. If you find anything strange, please email admin@chordie.com.


Algo que decir  Allison

SONG:ALGO QUE DECIR
ALBUM:MEMORAMA
BY SYNRODRIGOGATES
*********************************************************
Intro:
 
 E||-------------------------|--------------------------|
 B||-------------------------|--------------------------|
 G||-------------------------|--------------------------|
 D||-------------------------|--------------------------|x8
 A||----------5-----8-----7--|-----------3-----1--3--1--|
 D||--0----0-----0-----0-----|--0--0--0-----0-----------|

1 VERSO:
N[A#m]o puede ser, no puedo entender,
 
 E|-------------|-------------|
 B|-------------|-------------|
 G|-------------|-------------|
 D|--3-----2--2-|--3-----2--2-|
 A|--1(x8)-1--1-|--1(X8)-1--1-|
 E|-------------|-------------|

[Dm]por que las cosas van a donde dicen los [A#m]Demas,
 
 E|-----------------|-------------------|
 B|-----------------|-------------------|
 G|-----------------|-------------------|
 D|--7-----5--5-----|--7-----5--5-------|
 A|--5(X8)-5--5-----|--5(X8)-5--5-------|
 E|-----------------|-------------------|

que las mentiras hablen que digan algo que[C]
 
 E|--------------|--------------|
 B|--------------|--------------|
 G|--------------|--------------|
 D|--3-----2--2--|--3-----2--2--|
 A|--3(X8)-3--3--|--3(X8)-3--3--|
 E|--3-----3--3--|--3-----3--3--|

no quiero saber, y que D[A#m]uele desde ayer
 
 E|--------------|---------------|
 B|--------------|---------------|
 G|--------2--2--|---------------|
 D|--5-----3--3--|--5-----10--9--|
 A|--3(X8)-3--3--|--3(X8)-8---7--|
 E|--------------|---------------|

CORO:
Y es que [A#m]he deci[F]dido s[C]er [Em]un motivo, mas q[F]ue u[C]na razon,
 
 E|--------------------------|
 B|--------------------------|
 G|--3-----------5-----------|(X2)
 D|--3-----3-----5-----0--3--|
 A|--1(X5)-3(X5)-3(X5)-0--3--|
 E|--------3-----------0--3--|

p[Em]ara[F#m] des[A#m]armar su R[F]elac[C]ion[Em] qu[F#m]iero largarme
 
 E|--------------------------|
 B|--------------------------|
 G|--3-----------5-----------|
 D|--3-----3-----5-----0--3--|
 A|--1(x5)-3(x5)-3(x5)-0--3--|
 E|--------3-----------0--3--|

y no ver nunca ma[Em]s lo [F#m]que paso
 
 E|-------------------------|
 B|-------------------------|
 G|-3-----------5-----------|
 D|-3-----3-----5-----0--3--|
 A|-1(x5)-3(x5)-3(x5)-0--3--|
 E|-------3-----------0--3--|
 E||-------------------------|--------------------------|
 B||-------------------------|--------------------------|
 G||-------------------------|--------------------------|
 D||-------------------------|--------------------------|x8
 A||----------5-----8-----7--|-----------3-----1--3--1--|
 D||--0----0-----0-----0-----|--0--0--0-----0-----------|

2 VERSO
Que injusto[A#m] es mirar las cicatrises que
 
 E|-----------------------|
 B|-----------------------|
 G|-----------------------|
 D|--3-3-3----------------|(X2)
 A|--1-1-1(x3)-3/5--1/3-0-|
 E|-----------------------|

[Dm]has dejado en mi, las cosas que[F] Hacen y
 
 E|--------------------------------|
 B|--------------------------------|
 G|--------------------------------|
 D|--7-----------------------------|(x2)
 A|--7--5--8-7---3-3---3/5---1/3-0-|
 E|--5-----------------------------|

miro q[F]ue soy un infeliz y que
 
 E|-------------|-------------|
 B|-------------|-------------|
 G|-------------|-------------|
 D|--3-----2--2-|--3-----2--2-|
 A|--1(x8)-1--1-|--1(x8)-1--1-|
 E|-------------|-------------|

que n[C]unca quise ser y ahora soy asi[A#m]
 
 E|-------------|---------------------|
 B|-------------|---------------------|
 G|--------2--2-|---------------------|
 D|--5-----3--3-|--5----3-2-0-2-3-2-0-|
 A|--3(x8)-3--3-|--3(x8)--------------|
 E|-------------|---------------------|

CORO:
Y es que [A#m]he deci[F]dido s[C]er [Em]un motivo, mas q[F]ue u[C]na razon,
 
 E|--------------------------|
 B|--------------------------|
 G|--3-----------5-----------|(X2)
 D|--3-----3-----5-----0--3--|
 A|--1(X5)-3(X5)-3(X5)-0--3--|
 E|--------3-----------0--3--|

p[Em]ara[F#m] des[A#m]armar su R[F]elac[C]ion[Em] qu[F#m]iero largarme
 
 E|--------------------------|
 B|--------------------------|
 G|--3-----------5-----------|
 D|--3-----3-----5-----0--3--|
 A|--1(x5)-3(x5)-3(x5)-0--3--|
 E|--------3-----------0--3--|

y no ver nunca ma[Em]s lo [F#m]que paso
 
 E|-------------------------|
 B|-------------------------|
 G|-3-----------5-----------|
 D|-3-----3-----5-----0--3--|
 A|-1(x5)-3(x5)-3(x5)-0--3--|
 E|-------3-----------0--3--|

PUENTE:
 
 |---------------|---------------|---------------|----------------|
 |---------------|---------------|---------------|----------------|
 |----3---3---3--|----5---5---5--|---7---7---7---|--9---9---9-10--|
 |----x---x---x--|----x---x---x--|---x---x---x---|--x---x---x-x---|
 |----1---1---1--|----3---3---3--|---5---5---5---|--7---7---7-8---|
 |---------------|---------------|---------------|----------------|

X2
 
 |---------------|------------------------|----------|---------|
 |---------------|------------------------|----------|---------|
 |---------------|------------------------|----------|---------|
 |---------------|x2----------8-8-8-10----|----------|---------|
 |-(12)\------12-|---12-(12)\-8-8-8-10-12-|(12)\-----|-12-(12)-|
 |-(12)\0-0-0-12-|---12-(12)\-8-8-8-10-12-|(12)\0-0-0|-12-(12)-|
 |----------------|
 |----------------|
 |----------------|
 |-8-8-8-10-10-10-|
 |-8-8-8-10-10-10-|
 |-8-8-8-10-10-10-|

SOLO:
 
 -----------------------------|------------------------------|
 --------10-----10--------11--|-----10--------10--11--10--8--|
 --7--7------7------7--7------|--7------7--7-----------------|
 -----------------------------|------------------------------|
 -----------------------------|------------------------------|
 -----------------------------|------------------------------|
 --------------------------|--------------------------|
 --------6-----5--------6--|-----5--------5--6--5--3--|
 --3--3-----3-----3--3-----|--3-----3--3--------------|
 --------------------------|--------------------------|
 --------------------------|--------------------------|
 --------------------------|--------------------------|
 -----------------------------|------------------------------|
 --------10-----10--------11--|-----10--------10--11--10--8--|
 --7--7------7------7--7------|--7------7--7-----------------|
 -----------------------------|------------------------------|
 -----------------------------|------------------------------|
 -----------------------------|------------------------------|

CORO:
Y es que [A#m]he deci[F]dido s[C]er [Em]un motivo, mas q[F]ue u[C]na razon,
 
 E|--------------------------|
 B|--------------------------|
 G|--3-----------5-----------|(X2)
 D|--3-----3-----5-----0--3--|
 A|--1(X5)-3(X5)-3(X5)-0--3--|
 E|--------3-----------0--3--|

pa[Em]ra [F#m]desa[A#m]rmar su Re[F]laci[C]on [Em]qui[F#m]ero largarme
 
 E|--------------------------|
 B|--------------------------|
 G|--3-----------5-----------|
 D|--3-----3-----5-----0--3--|
 A|--1(x5)-3(x5)-3(x5)-0--3--|
 E|--------3-----------0--3--|

y no ver nunca ma[Em]s lo [F#m]que paso
 
 E|-------------------------|
 B|-------------------------|
 G|-3-----------5-----------|
 D|-3-----3-----5-----0--3--|
 A|-1(x5)-3(x5)-3(x5)-0--3--|
 E|-------3-----------0--3--|
 E||-------------------------|--------------------------|--------|
 B||-------------------------|--------------------------|--------|
 G||-------------------------|--------------------------|--------|
 D||-------------------------|--------------------------|x2-0----|
 A||----------5-----8-----7--|-----------3-----1--3--1--|---0----|
 D||--0----0-----0-----0-----|--0--0--0-----0-----------|---0----|

OTRA VERSION DEL SOLO:
 
 E|------------------------------|
 B|--10-10---11-10---10/11--10/6-|
 G|------------------------------|
 D|------------------------------|
 A|------------------------------|
 E|------------------------------|

[F] [C]  
 
 E|-----------------------|
 B|-----------------------|
 G|--9-9-10-9---9/10--9/7-|
 D|-----------------------|
 A|-----------------------|
 E|-----------------------|

[D]  
 
 E|------------------------------|
 B|--10-10---11-10---10/11--10/6-|
 G|------------------------------|
 D|------------------------------|
 A|------------------------------|
 E|------------------------------|


Important: The song above is NOT stored on the Chordie server. The original song is hosted at www.guitaretab.com. Chordie works as a search engine and provides on-the-fly formatting. Chordie does not index songs against artists'/composers' will. To remove this song please click here.

Text color:
Chord color:
Chord grids: 
Font size:    
Page size: 

A#m C D Dm Em F F#m
Rate #2 of 2 versions

Login - add to songbook

SHARE PAGE  




You need to log in to post comments