Guitar Tabs, Chords and Lyrics
Major upgrade!! After one year development the new version of Chordie is now online! Please give feedback.


Midnight Rider  The Allman Brothers Band

This is the song at the begining when they are running
Intro:
 
 |-----------------------------------|
 |---3--3-----3--3-----3--3-----3--3-|
 |--2---2----2---2----2---2----2---2-|
 |-0--0-0---0--0-0---0--0-0---0--0-0-|
 |-----------------------------------|
 |-----------------------------------|
 |----------------------------------------------------------|
 |-----3-3---3--------3-3---3--------3-3---3--------3-3---3-|
 |-----2-2---2--------2-2---2--------2-2---2--------2-2---2-|
 |-----0-0---0--------0-0---0--------0-0---0--------0-0---0-|
 |-0-3-----3------0-3-----3------0-3-----3------0-3-----3---|
 |----------------------------------------------------------|

Chords:
[D]I got to run to keep from hidin'
[D]And I'm bound to keep on ridin'
[D]And I got one more silver dollar
[G]But I'm not gonna let em' cath me lord,
[Am7]not gonna let them cath the midnight [D]rider
(for the part above, the guitar does this):
 
 |-----------------------|
 |-----------------------|
 |-5b7-----7b9-----9b11--|
 |-----------------------|
 |-----------------------|
 |-----------------------|

Guitar Solo:
 
 |-----------10---------------------------------------10----|
 |--------------10-----------------------------10--------10-|
 |-7-9-9b11--------9b11-9-7-9----7--9b11--9b11----9------7--|
 |-----------------------------9----------------------------|
 |----------------------------------------------------------|
 |----------------------------------------------------------|
 |-------------------------------------------------------------------------|
 |-------10---10----------10-----10----10------10----10---10---------------|
 |-9b11-----7-------------7---7--9b11--9b11----9b11--9b11--9-7-------------|
 |---------------7--10-----------------------------------------9----7------|
 |----------------------------------------------------------------7---7--5-|
 |-------------------------------------------------------------------------|

Guitar 1:
 
 |-----------------------------------------------------|
 |-----------------------------------------------------|
 |-10b12-----------12b10-9-10-12-10-9------------------|
 |------------------------------------12b14-12---------|
 |-----------------------------------------------------|
 |-----------------------------------------------------|

| |
| |
| |
|Guitar 2: |
 
 |-----------12-13-15---------------------10-11--13-12-|
 |-------/13---------------------------11--------------|
 |-----------------------------------------------------|
 |-----------------------------------------------------|
 |-----------------------------------------------------|
 |-----------------------------------------------------|

Guitar 1:
 
 |-----------------------------------------------------|
 |-----------------------------------------------------|
 |-10b12-----------12b10-9-10-12-10-9------------------|
 |------------------------------------12b14-12---------|
 |-----------------------------------------------------|
 |-----------------------------------------------------|

| |
| |
| |
|Guitar 2: |
 
 |-----------12-13-15---------------------10-11--13-12-|
 |-------/13---------------------------11--------------|
 |-----------------------------------------------------|
 |-----------------------------------------------------|
 |-----------------------------------------------------|
 |-----------------------------------------------------|

Guitar 1:
 
 |---------------------------------------------------|
 |--------------------------------------------/7-~---|
 |-10b12-----------12b10-9--10-----9-----7----/7-~---|
 |--------------------------------------------/7-~---|
 |---------------------------------------------------|
 |---------------------------------------------------|

| |
| |
| |
|Guitar 2: |
 
 |-----------12-13-15--------15-15-------------------|
 |-------/13-----------------------------------------|
 |---------------------------------------------------|
 |---------------------------------------------------|
 |---------------------------------------------------|
 |---------------------------------------------------|


Important: The song above is NOT stored on the Chordie server. The original song is hosted at www.guitaretab.com. Chordie works as a search engine and provides on-the-fly formatting. Chordie does not index songs against artists'/composers' will. To remove this song please click here.

Text color:
Chord color:
Chord grids: 
Font size:    
Page size: 

Am7 D G
Rate #6 of 15 versions

Jango Player

Login - add to songbook

SHARE PAGE  




You need to log in to post comments