Guitar Tabs, Chords and Lyrics
Server problems seems to be fixed. Chordie has been experiencing problems with songs disappearing. These issues now seems to be fixed, but still verifying the fix. If you find anything strange, please email admin@chordie.com.


Teenage Hearts  Allstar Weekend

Hi there! So this was a request over at liveloveguitar.com
and I have fallen in love with this song!! I hadn't heard it
before and I- LOVE, LOVE, LOVE, it :)
Tabbed using UG user shelbyamw's chords :)Go give it some love!
It's the most accurate capo version (no barres! Yay!) on UG!
http://tabs.ultimate-guitar.com/a/allstar_weekend/teenage_hearts_ver4_crd.htm
Here's a link to the song- http://www.youtube.com/watch?v=9zdxobQ214E
Play along to get the picking timing down. It can be tricky!!
STANDARD TUNING w/
CAPO ON 4
Intro-
C (4x)
 
 e|---------------------------------------------------------------------------|
 B|---------------------------------------------------------------------------|
 G|---0----0---0----0---0----0---0----0---------------------------------------|
 D|------2---2----2---2----2---2----2---2-------------------------------------|
 A|---3--------3--------3--------3--------------------------------------------|
 E|---------------------------------------------------------------------------|

C (2x) Am (2x) Em (2x)
 
 e|---------------------------------------------------------------|
 B|---------------------------------------------------------------|
 G|---0----0---0----0----2----2---2----2----0----0---0----0-------|
 D|------2---2----2---2-----2---2----2---2-----2---2----2---2-----|
 A|---3--------3---------0--------0---------2--------2------------|
 E|---------------------------------------------------------------|

[C]We are teenage [Am]hearts
Forever [Em]young
F (1x) G (1x) C (2x) G (1.5x lol!)
 
 e|----------------------------------------------------------|
 B|---------------------------------------------------3-3----|
 G|---2----2----0----0----0----0---0----0----0----0----------|
 D|------3---3-----0---0-----2---2----2---2-----0---0--------|
 A|---3-------------------3--------3-------------------------|
 E|-------------3----------------------------3--------3-3----|

We [F]think we know it [G]all but we [C]don't
No we [G]don't
C (2x) Am (2x) Em (2x)
 
 e|---------------------------------------------------------------|
 B|---------------------------------------------------------------|
 G|---0----0---0----0----2----2---2----2----0----0---0----0-------|
 D|------2---2----2---2-----2---2----2---2-----2---2----2---2-----|
 A|---3--------3---------0--------0---------2--------2------------|
 E|---------------------------------------------------------------|

And [C]I heard you moved on, [Am]moved away[Em]
F (1x) G (1x) C (2x) G (1x)
 
 e|----------------------------------------------------------|
 B|---------------------------------------------------3------|
 G|---2----2----0----0----0----0---0----0----0----0----------|
 D|------3---3-----0---0-----2---2----2---2-----0---0--------|
 A|---3-------------------3--------3-------------------------|
 E|-------------3----------------------------3--------3------|

[F]Somewhere down the [G]coast is what they [C]say
I think that's [G]great
(Chorus' can be strummed or picked. I liked hearing the 'B' string in the chorus
when picking, so I added it.)
C (2x) Am (2x) F (2x) G
 
 e|----------------------------------------------------------------------------|
 B|--------1--------1---------1--------1---------1--------1-------3------3-----|
 G|---0-----0---0----0----2----2---2----2----2----2---2----2---0---0--0---0----|
 D|------2---2----2---2-----2---2----2---2-----3---3----3---3----0--0---0--0---|
 A|---3---------3---------0--------0---------3--------3------------------------|
 E|------------------------------------------------------------3------3--------|

[C]I, I am in [Am]love
So much in lov[F]e
I am in [G]love with...
C (2x) Am (2x) F (2x) G (2x)
 
 e|----------------------------------------------------------------------------|
 B|--------1--------1---------1--------1---------1--------1-------3------3-----|
 G|---0-----0---0----0----2----2---2----2----2----2---2----2---0---0--0---0----|
 D|------2---2----2---2-----2---2----2---2-----3---3----3---3----0--0---0--0---|
 A|---3---------3---------0--------0---------3--------3------------------------|
 E|------------------------------------------------------------3------3--------|

[C] You. You are a[Am]fraid
You pushed me aw[F]ay
You are afra[G]id you loved me
C (2x)
 
 e|-----------------------|
 B|-----------------------|
 G|---0----0---0----0-----|
 D|------2---2----2---2---|
 A|---3--------3----------|
 E|-----------------------|

[C]Too
C (2x) Am (2x) Em (2x)
 
 e|---------------------------------------------------------------|
 B|---------------------------------------------------------------|
 G|---0----0---0----0----2----2---2----2----0----0---0----0-------|
 D|------2---2----2---2-----2---2----2---2-----2---2----2---2-----|
 A|---3--------3---------0--------0---------2--------2------------|
 E|---------------------------------------------------------------| 

[C]We would write our [Am]names on every[Em]thing
F (1x) G (1x) C (2x) G (1x)
 
 e|----------------------------------------------------------|
 B|----------------------------------------------------------|
 G|---2----2----0----0----0----0---0----0----0----0---0------|
 D|------3---3-----0---0-----2---2----2---2-----0---0---0----|
 A|---3-------------------3--------3-------------------------|
 E|-------------3----------------------------3--------3------|

But w[F]e're not on the sam[G]e page much these da[C]ys, anyw[G]ay
C (2x) Am (2x) Em (2x)
 
 e|---------------------------------------------------------------|
 B|---------------------------------------------------------------|
 G|---0----0---0----0----2----2---2----2----0----0---0----0-------|
 D|------2---2----2---2-----2---2----2---2-----2---2----2---2-----|
 A|---3--------3---------0--------0---------2--------2------------|
 E|---------------------------------------------------------------|

[C]I wish it was yesterd[Am]ay so I could lock the g[Em]ate
F (1x) G (1x) C (2x) G (1x)
 
 e|----------------------------------------------------------|
 B|---------------------------------------------------3------|
 G|---2----2----0----0----0----0---0----0----0----0----------|
 D|------3---3-----0---0-----2---2----2---2-----0---0--------|
 A|---3-------------------3--------3-------------------------|
 E|-------------3----------------------------3--------3------|

We'd s[F]ay the things we n[G]ever thought we'd s[C]ay
And never let you get [G]away
C (2x) Am (2x) F (2x) G
 
 e|----------------------------------------------------------------------------|
 B|--------1--------1---------1--------1---------1--------1-------3------3-----|
 G|---0-----0---0----0----2----2---2----2----2----2---2----2---0---0--0---0----|
 D|------2---2----2---2-----2---2----2---2-----3---3----3---3----0--0---0--0---|
 A|---3---------3---------0--------0---------3--------3------------------------|
 E|------------------------------------------------------------3------3--------|

[C]I, I am in [Am]love
So much in lov[F]e
I am in [G]love with...
C (2x) Am (2x) F (2x) G (2x)
 
 e|----------------------------------------------------------------------------|
 B|--------1--------1---------1--------1---------1--------1-------3------3-----|
 G|---0-----0---0----0----2----2---2----2----2----2---2----2---0---0--0---0----|
 D|------2---2----2---2-----2---2----2---2-----3---3----3---3----0--0---0--0---|
 A|---3---------3---------0--------0---------3--------3------------------------|
 E|------------------------------------------------------------3------3--------|

[C] You. You are a[Am]fraid
You pushed me aw[F]ay
You are afra[G]id you loved me
(Down strums)
[Am]We said [G]things we didn't mean[F]
[Am]Promi[G]ses we couldn't keep[F]
[G]I know I meant it then
It's [F]funny how things change
Am G F..-once
But you don't have to be afraid
C (2x) Am (2x) F (2x) G
 
 e|----------------------------------------------------------------------------|
 B|--------1--------1---------1--------1---------1--------1-------3------3-----|
 G|---0-----0---0----0----2----2---2----2----2----2---2----2---0---0--0---0----|
 D|------2---2----2---2-----2---2----2---2-----3---3----3---3----0--0---0--0---|
 A|---3---------3---------0--------0---------3--------3------------------------|
 E|------------------------------------------------------------3------3--------|

[C]I, I am in [Am]love
So much in lov[F]e
I am in [G]love with...
C (2x) Am (2x) F (2x) G (2x)
 
 e|----------------------------------------------------------------------------|
 B|--------1--------1---------1--------1---------1--------1-------3------3-----|
 G|---0-----0---0----0----2----2---2----2----2----2---2----2---0---0--0---0----|
 D|------2---2----2---2-----2---2----2---2-----3---3----3---3----0--0---0--0---|
 A|---3---------3---------0--------0---------3--------3------------------------|
 E|------------------------------------------------------------3------3--------|

[C] You. You are a[Am]fraid
You pushed me aw[F]ay
You are afra[G]id you loved me
C (2x)
 
 e|-----------------------|
 B|-----------------------|
 G|---0----0---0----0-----|
 D|------2---2----2---2---|
 A|---3--------3----------|
 E|-----------------------|

[C]Too
C (2x) Am (2x) F (2x) G
 
 e|----------------------------------------------------------------------------|
 B|--------1--------1---------1--------1---------1--------1-------3------3-----|
 G|---0-----0---0----0----2----2---2----2----2----2---2----2---0---0--0---0----|
 D|------2---2----2---2-----2---2----2---2-----3---3----3---3----0--0---0--0---|
 A|---3---------3---------0--------0---------3--------3------------------------|
 E|------------------------------------------------------------3------3--------|

[C]I, I am in [Am]love
So much damn in [F]love
I am in [G]love with...
C (2x) Am (2x) F (2x) G (2x)
 
 e|----------------------------------------------------------------------------|
 B|--------1--------1---------1--------1---------1--------1-------3------3-----|
 G|---0-----0---0----0----2----2---2----2----2----2---2----2---0---0--0---0----|
 D|------2---2----2---2-----2---2----2---2-----3---3----3---3----0--0---0--0---|
 A|---3---------3---------0--------0---------3--------3------------------------|
 E|------------------------------------------------------------3------3--------|

[C] You. You are a[Am]fraid
You pushed me aw[F]ay
You are afra[G]id you loved me
C (2x) Am (2x) C
 
 e|-----------------------------------------------|
 B|-----------------------------------------------|
 G|---0----0---0----0----2----2---2----2----0-----|
 D|------2---2----2---2-----2---2----2---2--------|
 A|---3--------3---------0--------0---------------|
 E|-----------------------------------------------|

[C]We were teenage [Am]hearts
C -once
Forever young
Have fun and RTE :)
cristy♥twilight

Important: The song above is NOT stored on the Chordie server. The original song is hosted at www.guitaretab.com. Chordie works as a search engine and provides on-the-fly formatting. Chordie does not index songs against artists'/composers' will. To remove this song please click here.

Text color:
Chord color:
Chord grids: 
Font size:    
Page size: 

Am C Em F G
Rate #1 of 10 versions

Jango Player

Login - add to songbook

SHARE PAGE  




You need to log in to post comments