Guitar Tabs, Chords and Lyrics
Update 25:10. 13:00. Site is back up running again. Songbooks are recovered. Woring on getting search back up..


In Loving Memory   Alter Bridge

 
 -------------------------------------------------------------------------------

 


 In Loving Memory - The Jamestown Story


 

 
 -------------------------------------------------------------------------------

 


 Tabbed by: asipp


 


 i think its a little confusing but good luck trying !


 


 INTRO


 


 GUITAR 1


 

 
 e|---------------------------------------------------------------------------|
 B|---------------------------------------------------------------------------|
 G|-9-9------------9-8--6-6------------9-8------------------------------------|
 D|-9-9--7-7--9-9--9-8--6-6--7-7--9-9--9-8------------------------------------|
 A|-7-7--7-7--9-9--7-6--4-4--7-7--9-9--7-6------------------------------------|
 E|------5-5--7-7------------5-5--7-7-----------------------------------------|

 


 


 GUITAR 2


 

 
 e|-------------|
 B|-------------|
 G|-------------|
 D|-----7-9-----|
 A|-7-9---------|
 E|-------------|

 


 


 2 times


 

 
 e|----------------------------------|----------------------------------------|
 B|----------------------------------|----------------------------------------|
 G|-9-----------9-8---6----------9-8-|--9~------------------------------------|
 D|-9---7---9---9-8---6---7---9--9-8-|--9~------------------------------------|
 A|-7---7---9---7-6---4---7---9--7-6-|--7~------------------------------------|
 E|-----5---7-------------5---7------|----------------------------------------|

 


 


 2 times


 

 
 e|--------------------------------------------|------------------------------|
 B|--------------------------------------------|------------------------------|
 G|--------------------------------------------|------------------------------|
 D|-----7-9-7-6-------7-9-7-6-------7-9-7-6----|------------------------------|
 A|-7-9-----------7-9-----------7-9---------7-6|-7~---------------------------|
 E|--------------------------------------------|------------------------------|

 


 


 VERSE


 


 GUITAR 1 and 2


 

 
 e|---------------------------------------------------------------------------|
 B|---------------------------------------------------------------------------|
 G|-9--------9--6-------------------------------------------------------------|
 D|-9--7--9--9--6--7--9-------------------------------------------------------|
 A|-7--7--9--7--4--7--9-------------------------------------------------------|
 E|----5--7--------5--7-------------------------------------------------------|

 


 


 CHORUS


 


 GUITAR 1 and 2


 1 time 3 times last part 1 time


 

 
 e|----------|--------------|-------------------------------------------------|
 B|----------|--------------|-------------------------------------------------|
 G|-9--------|-9-8--6-------|-9-8-9~------------------------------------------|
 D|-9--7?-9--|-9-8--6--7--9-|-9-8-9~------------------------------------------|
 A|-7--7--9--|-7-6--4--7--9-|-7-6-7~------------------------------------------|
 E|----5--7--|---------5--7-|-------------------------------------------------|

 


 


 INTRO


 


 2 times


 

 
 e|----------------------------------|----------------------------------------|
 B|----------------------------------|----------------------------------------|
 G|-9-----------9-8---6----------9-8-|--9~------------------------------------|
 D|-9---7---9---9-8---6---7---9--9-8-|--9~------------------------------------|
 A|-7---7---9---7-6---4---7---9--7-6-|--7~------------------------------------|
 E|-----5---7-------------5---7------|----------------------------------------|

 


 


 2 times


 

 
 e|--------------------------------------------|------------------------------|
 B|--------------------------------------------|------------------------------|
 G|--------------------------------------------|------------------------------|
 D|-----7-9-7-6-------7-9-7-6-------7-9-7-6----|------------------------------|
 A|-7-9-----------7-9-----------7-9---------7-6|-7~---------------------------|
 E|--------------------------------------------|------------------------------|

 


 


 VERSE


 


 GUITAR 1 and 2


 

 
 e|---------------------------------------------------------------------------|
 B|---------------------------------------------------------------------------|
 G|-9--------9--6-------------------------------------------------------------|
 D|-9--7--9--9--6--7--9-------------------------------------------------------|
 A|-7--7--9--7--4--7--9-------------------------------------------------------|
 E|----5--7--------5--7-------------------------------------------------------|

 


 


 CHORUS


 


 GUITAR 1 and 2


 1 time 3 times last part 1 time


 

 
 e|----------|--------------|-------------------------------------------------|
 B|----------|--------------|-------------------------------------------------|
 G|-9--------|-9-8--6-------|-9-8-9~------------------------------------------|
 D|-9--7?-9--|-9-8--6--7--9-|-9-8-9~------------------------------------------|
 A|-7--7--9--|-7-6--4--7--9-|-7-6-7~------------------------------------------|
 E|----5--7--|---------5--7-|-------------------------------------------------|

 


 


 INTRO


 2 times


 

 
 e|----------------------------------|----------------------------------------|
 B|----------------------------------|----------------------------------------|
 G|-9-----------9-8---6----------9-8-|--9~------------------------------------|
 D|-9---7---9---9-8---6---7---9--9-8-|--9~------------------------------------|
 A|-7---7---9---7-6---4---7---9--7-6-|--7~------------------------------------|
 E|-----5---7-------------5---7------|----------------------------------------|

 


 


 2 times


 

 
 e|--------------------------------------------|------------------------------|
 B|--------------------------------------------|------------------------------|
 G|--------------------------------------------|------------------------------|
 D|-----7-9-7-6-------7-9-7-6-------7-9-7-6----|------------------------------|
 A|-7-9-----------7-9-----------7-9---------7-6|-7~---------------------------|
 E|--------------------------------------------|------------------------------|

 


 


 GUITAR 2


 4x 4x 4x 4x


 

 
 e|-------|-------|-------|-------|
 B|-------|-------|-------|-------|
 G|--14---|--15---|--14---|--12---|
 D|----14-|----15-|----14-|----12-|
 A|-------|-------|-------|-------|
 E|-------|-------|-------|-------|

 


 


 CHORUS


 


 GUITAR 1


 1 time 3 times last part 1 time


 

 
 e|----------|--------------|-------------------------------------------------|
 B|----------|--------------|-------------------------------------------------|
 G|-9--------|-9-8--6-------|-9-8-9~------------------------------------------|
 D|-9--7?-9--|-9-8--6--7--9-|-9-8-9~------------------------------------------|
 A|-7--7--9--|-7-6--4--7--9-|-7-6-7~------------------------------------------|
 E|----5--7--|---------5--7-|-------------------------------------------------|

 


 


 GUITAR 2


 2 times


 

 
 e|--------------------------------------------|------------------------------|
 B|--------------------------------------------|------------------------------|
 G|--------------------------------------------|------------------------------|
 D|-----7-9-7-6-------7-9-7-6-------7-9-7-6----|------------------------------|
 A|-7-9-----------7-9-----------7-9---------7-6|-7~---------------------------|
 E|--------------------------------------------|------------------------------|

 


 


 OUTRO


 


 GUITAR 1


 

 
 e|---------------------------------------------------------------------------|
 B|---------------------------------------------------------------------------|
 G|-9-9------------9-8--6-6------------9-8------------------------------------|
 D|-9-9--7-7--9-9--9-8--6-6--7-7--9-9--9-8------------------------------------|
 A|-7-7--7-7--9-9--7-6--4-4--7-7--9-9--7-6------------------------------------|
 E|------5-5--7-7------------5-5--7-7-----------------------------------------|

 


 


 GUITAR 2


 

 
 e|-------------|
 B|-------------|
 G|-------------|
 D|-----7-9-----|
 A|-7-9---------|
 E|-------------|


Important: The song above is NOT stored on the Chordie server. The original song is hosted at www.guitaretab.com. Chordie works as a search engine and provides on-the-fly formatting. Chordie does not index songs against artists'/composers' will. To remove this song please click here.

This song is displayed as text-only. Transposing and tuning is only available for chordpro-songs.
Rate #4 of 10 versions

Login - add to songbook

SHARE PAGE  



You need to log in to post comments