Guitar Tabs, Chords and Lyrics
Update 25:10. 13:00. Site is back up running again. Songbooks are recovered. Woring on getting search back up..


Blackbird  Alter Bridge

Blackbird
Alter Bridge
Guitar Solo
1/2 Step Down (D#G#C#F#A#d#)
H. H. H. E E E E E E
 
 ----------------|----------------|---------------|--------------------|
 ----------------|----------------|---------------|--------------------|
 ----------------|----------------|---------------|--------3--3--5--5--|
 --5~------------|--5~------------|--L------------|--5--5--------------|
 ----------------|----------------|---------------|--------------------|
 ----------------|----------------|---------------|--------------------|

H. H. H. Q Q E E
 
 ----------------|---------------|---------------|-------------------|
 ----------------|---------------|---------------|-------------------|
 --5b------------|--L------------|---------------|--------3----5--3--|
 ----------------|---------------|--1------------|--/5---------------|
 ----------------|---------------|---------------|-------------------|
 ----------------|---------------|---------------|-------------------|

E E H H. S S H E Q E Q.
 
 -------------------|------------------|--------------------|------------------|
 -------------------|--6g8~------------|--------------------|------------------|
 --5s--7~--L--------|------------------|--7s-5~-L--------L--|--5----3--5b------|
 -------------------|------------------|--------------------|------------------|
 -------------------|------------------|--------------------|------------------|
 -------------------|------------------|--------------------|------------------|

Q E Q. H. Q E E E E
 
 -------------------|---------------|-------------------------|
 -------------------|---------------|--11b--------------------|
 --5b----3----------|---------------|--12-----12--10--12--10--|
 -----------5~------|--L------------|-------------------------|
 -------------------|---------------|-------------------------|
 -------------------|---------------|-------------------------|

S S E E E E E Q. Q E Q Q. E
 
 ----------------------------|---------------------|--------------------|
 ----------------------------|---------------------|--------------------|
 ----------------------------|---------------------|--12----10------12--|
 --12s-10-8--10b--8--10b--8--|-----------12--------|--------------------|
 ----------------------------|--/10------------10--|--------------------|
 ----------------------------|---------------------|--------------------|

Q. Q E Q Q Q H. H.
 
 ---------------------|---------------------|------------------|----------------|
 -----------15--------|--15b----14----13----|--15\~------------|---L------------|
 --/12------------12--|---------------------|------------------|----------------|
 ---------------------|---------------------|------------------|----------------|
 ---------------------|---------------------|------------------|----------------|
 ---------------------|---------------------|------------------|----------------|

H E E E E E E E E H.
 
 ---------------------|----------18--18--20--18--|--20b~------------|
 ---L-----------------|--20--20------------------|------------------|
 ------------/18--19--|--------------------------|------------------|
 ---------------------|--------------------------|------------------|
 ---------------------|--------------------------|------------------|
 ---------------------|--------------------------|------------------|

E E H H. H E E
 
 --18-----------------|--20b~------------|---------------------|
 ------20~---L--------|------------------|--19~---------L--19--|
 ---------------------|------------------|---------------------|
 ---------------------|------------------|---------------------|
 ---------------------|------------------|---------------------|
 ---------------------|------------------|---------------------|

H. H E E H. Q Q Q H.
 
 -----------------|--17~---------L--17--|--18~------------|-20-----15----17---|--17b~------------|
 --20~------------|---------------------|-----------------|-------------------|------------------|
 -----------------|---------------------|-----------------|-------------------|------------------|
 -----------------|---------------------|-----------------|-------------------|------------------|
 -----------------|---------------------|-----------------|-------------------|------------------|
 -----------------|---------------------|-----------------|-------------------|------------------|
 |---3---| 

H E E E H S S S S
 
 --17b~--------15------15--|--17~--------15h-17p-15----|
 ------------------18------|------------------------18-|
 --------------------------|---------------------------|
 --------------------------|---------------------------|
 --------------------------|---------------------------|
 --------------------------|---------------------------|
 |---3---| 

E E E H H E E Q. Q E
 
 --15---------------------|-----------------------|----------------------|
 ------18--15--18b--------|-----------------------|----------------------|
 --------------17b--------|--14~--------12--14--|--14b------14b----12--|
 -------------------------|-----------------------|----------------------|
 -------------------------|-----------------------|----------------------|
 -------------------------|-----------------------|----------------------|
 |---3---| 

Q E E E S S S S E Q. Q
 
 ---------------------------------|--------------------|
 ---------------------------------|--------------------|
 ---------------------------------|--------------------|
 --\10----------------10-12-------|------10-------L----|
 ---------13--10--13--------13-10-|--13----------------|
 ---------------------------------|--------------------|
 |---3---| |---3---| 3 |--| |---3---| 3 3 3 3 

E E E E E E E. S E E E E E. E E E E
 
 --15--15--15--18--15-------------------|------------------------------------|
 ----------------------15--18b---18-15--|--18--15--18--15----------------18--|
 ---------------------------------------|-------------------17b--15----------|
 ---------------------------------------|----------------------------17------|
 ---------------------------------------|------------------------------------|
 ---------------------------------------|------------------------------------|
 |----3---| |---3---| 

[E] [E] [E] [E] [E] [E] [E] [E]  
 
 ---------------------------------|
 ---------------------------------|
 --17b--15--17---L--15---L--L--x--|
 ------------------------------x--|
 ------------------------------x--|
 ---------------------------------|
 |--3--| |--3-| |--3-| |--3--| |--3-| |--3-| 

S S S S S S S S S S S S S S S S S S Q E Q.
 
 --3h-5h-6p-5p-3-----------------------------------|-----------------|
 ----------------6p-4p-3---3h-4h-6p-4p-3-----------|-----------------|
 ------------------------5---------------5p-3p-2-0-|--3----5--3------|
 --------------------------------------------------|-----------------|
 --------------------------------------------------|-----------------|
 --------------------------------------------------|-----------------|

Q E Q. Q E Q. H E E
 
 -----------------|--------------------|---------------------|
 -----------------|--------------------|--18-----------------|
 --2----3--2------|--15----17--15------|--17b--------14--15--|
 -----------------|--------------------|---------------------|
 -----------------|--------------------|---------------------|
 -----------------|--------------------|---------------------|

Q. Q E H. Q Q Q
 
 ------------------15--|------------------|---------------|--------------------|
 --17b------17b--------|--17pb------------|---------------|---L----------------|
 ----------------------|------------------|---------------|--------14----15----|
 ----------------------|------------------|---------------|--------------------|
 ----------------------|------------------|---------------|--------------------|
 ----------------------|------------------|---------------|--------------------|

Q. Q E Q. E Q Q E Q E
 
 ------------------18--|--------------------|---------18---------18--|
 --17b------17b--------|--17b------15-------|--18b--------18b--------|
 ----------------------|--------------------|------------------------|
 ----------------------|--------------------|------------------------|
 ----------------------|--------------------|------------------------|
 ----------------------|--------------------|------------------------|

E H E E S S S S E S S S S
 
 ---------------------|--17b--17p-15--------17b--17p-15--------|
 --18b--18b-----------|--------------18p-15-------------18p-15-|
 ---------------------|----------------------------------------|
 ---------------------|----------------------------------------|
 ---------------------|----------------------------------------|
 ---------------------|----------------------------------------|
 |---3---| 

E S S S S E S S S S Q Q E E E
 
 --17b--17p-15--------17b--17p-15--------|--18b----18b----15----------|
 --------------18p-15-------------18p-15-|--------------------18--15--|
 ----------------------------------------|----------------------------|
 ----------------------------------------|----------------------------|
 ----------------------------------------|----------------------------|
 ----------------------------------------|----------------------------|

TP TP TP TP TP TP TP TP TP TP TP TP
E Q. Q S S S S S S S S S S S S
 
 --18b--18b-------L----|--20-15-18-15-17-15-18-15-20-15-18-15-|
 ----------------------|--------------------------------------|
 ----------------------|--------------------------------------|
 ----------------------|--------------------------------------|
 ----------------------|--------------------------------------|
 ----------------------|--------------------------------------|

TP TP TP TP TP TP TP TP TP TP TP TP TP TP TP TP TP TP TP TP TP TP TP TP
S S S S S S S S S S S S S S S S S S S S S S S S
 
 --17-15-18-15-20-15----15-18-15----15-|--17-15----15-18-15-------------------|
 --------------------18----------18----|--------18----------18-16-18-16-15----|
 --------------------------------------|-----------------------------------17-|
 --------------------------------------|--------------------------------------|
 --------------------------------------|--------------------------------------|
 --------------------------------------|--------------------------------------|

E S S S S S S E E H. H.
 
 ---------------------------------|---------------|---------------|-------|
 ---------------------------------|---------------|---------------|-------|
 --15~---L--L--L--L--L--L--L---L--|--0------------|--L------------|-------|
 ---------------------------------|---------------|---------------|-------|
 ---------------------------------|---------------|---------------|-------|
 ---------------------------------|---------------|---------------|-------| 

Duration Legend
 
 ---------------

W - whole
H - half
Q - quarter
E - 8th
S - 16th
T - 32nd
X - 64th
. - note dotted
|-n-| - n-tuplets
Tablature Legend
 
 ----------------

L - tied note
x - dead note
g - grace note
(n) - ghost note
> - accentuded note
NH - natural harmonic
AH - artificial harmonic
TH - tapped harmonic
SH - semi harmonic
PH - pitch harmonic
h - hammer on
p - pull off
b - bend
br - bendRelease
pb - preBend
pbr - preBendRelease
brb - bendReleaseBend
\n/ - tremolo bar dip
\n - tremolo bar dive
-/n - tremolo bar Release up
/n\ - tremolo bar inverted dip
/n - tremolo bar return
-\n - tremolo bar Release down
S - shift slide
s - legato slide
/ - slide into from below or out of upwards
\ - slide into from above or out of downwards
~ - vibrato
W - wide vibrato
tr - trill
TP - tremolo picking
T - tapping
S - slap
P - pop
< - fade in
^ - brush up
v - brush down

Important: The song above is NOT stored on the Chordie server. The original song is hosted at www.guitaretab.com. Chordie works as a search engine and provides on-the-fly formatting. Chordie does not index songs against artists'/composers' will. To remove this song please click here.

Text color:
Chord color:
Chord grids: 
Font size:    
Page size: 

E
Rate #6 of 7 versions

Jango Player

Login - add to songbook

SHARE PAGE  




You need to log in to post comments