Guitar Tabs, Chords and Lyrics
Major upgrade!! After one year development the new version of Chordie is now online! Please give feedback.


Anecdote  Ambulance LTD

Ambulance Ltd. - Anecdote
[C/G]|-0-0-0-0-|
|-1-1-1-1-|
|-0-0-0-0-|
|-2-2-2-2-|
|-3-3-3-3-|
|-3-3-3-3-|
Riff 1
[C] [Am] [Em]  
 
 |8------8---|7------7---|3------3---|3-----0---|
 |---8-------|---5-------|---0-------|--0-------|
 |-9---------|-5---------|-0---------|-0--------|
 |-----------|-----------|-----------|----------|
 |-----------|-----------|-----------|----------|
 |8----8---8-|5----5---5-|0----0---0-|0---0---0-|

Verse 1
[C] You pin the [Am]medals to your c[Em]hest
and [C]settle down for [Am]seven minutes re[Em]st
You [C]dim the lights, ad[Am]minister the cur[Em]e
You [C]tried it several [Am]times, you're still not [Em]sure
Chorus
[Em]You take the [F]first one for [Am]free
And [C/G]pass it on to [D]me
I [Dm]don't re[Am]fuse
[G]Baby if you only knew
(Play Riff 1)
Verse 2
You [C]take the lines [Am]from ordinary b[Em]ooks
You're [C]disappointed [Am]in the way she loo[Em]ks
You [C]cut the circul[Am]ation to your hand[Em]
And [C]calculate the m[Am]otion of the land[Em]
Chorus
[Em]Then you [F]fall back asle[Am]ep
And w[C/G]ander down the [D]street
that [Dm]losers [Am]use
[G]Don't say you feel the same way too
(Play Riff 1)
Solo
 
 |3-----0---|3----3/5--|0------0---|0--------0---|
 |---0------|---0------|---0-------|-----0-------|
 |-0--------|-0--------|-0---------|---0---------|
 |----------|----------|-----------|02-----------|
 |3----3--3-|0-------0-|-----------|-------------|
 |----------|----------|0----0---0-|-------0---0-|

Repeat Solo 3 times
Verse 3
You [C]cut the worms and [Am]bait them on the [Em]hooks
You [C]cast a line towa[Am]rds the closest [Em]brooks
You [C]meet the girl who [Am]says she knows the pla[Em]n
You [C]act impressed and [Am]say you unders[Em]tand
Chorus
Cause you'd [F]like to be[Am]lieve
That [C/G]all that love is f[D]ree
Oh, [Dm]someone like [Am]you
You'll [G]never be lonely, or get the blues
(Play Riff 1 and solo to end)
-MNW615-

Important: The song above is NOT stored on the Chordie server. The original song is hosted at www.guitaretab.com. Chordie works as a search engine and provides on-the-fly formatting. Chordie does not index songs against artists'/composers' will. To remove this song please click here.

Text color:
Chord color:
Chord grids: 
Font size:    
Page size: 

Am C C/G D Dm Em F G
Rate #2 of 5 versions

Jango Player

Login - add to songbook

SHARE PAGE  



You need to log in to post comments