Guitar Tabs, Chords and Lyrics
Major upgrade!! After one year development the new version of Chordie is now online! Please give feedback.


Lonely People  America

"Lonely People" - America
arr. for one acoustic guitar
BASIC CHORDS USED
G Em7 Bm C D Am Em7(in BRIDGE)
 
 |------| |------| |------| |----0-| |------| |----0-| |------|
 |-0----| |-00---| |-0---0| |--0---| |---0-0| |--00--| |-0----|
 |0---00| |----0-| |----0-| |-0----| |----0-| |------| |----0-|

|--00--|
As far as strumming goes, you essentially play the lower half of each chord
followed by picking the top half of the chord. Listen to the recording and you'll
hear what I mean. Doing so creates a sort of rythym that continues throughout the
song. I tried tabbing the strumming out to help, along with the bass fills, but
really you can do just fine playing only the chords.
[G] [Em7] [Bm]  
 
 e|-------3----3-----0----------2---2---2---22--|
 B|--------3--33------3--33------3---3---3--33--|
 G|-----0-----00----0----00-4--4---4---4----44--|
 D|-----0-----00-2--2----22-4--4---4---4----44--|
 A|--2--2-----22-2--2----22-2--2---2---2----22--|
 E|--3--3-----33-0--0----00---------------------|

[G] [Em7] [Bm]  
 
 e|-------3----3------0----------2------------------|
 B|--------3--33-------3--33------3-----------------|
 G|-----0-----03----0-----00-4--4---4---------------|
 D|-----0-----00-2--2-----22-4--4---4--0h2-0--------|
 A|--2--2-----22-2--2-----22-2--2---2---------2-0---|
 E|--3--3-----33-0--0-----00----------------------3-|

[C] [D] [Em7] [Aadd9] [G] [D/F#]  
 
 e|------0----------2----2----33---33---33---33--|
 B|----1--1-11-3--3--3---3----33---33---33---33--|
 G|--0-0----00-2--2-----2-----00---00---00---00--|
 D|--2-2----22-0--0-----0------------------------|
 A|--3-3----33--------------2----0---------------|
 E|-----------------------------------3----2-----|

[C] [D] [G] [D] [Dsus]  
 
 e|--0--0-0--0-0--2--2-2--2-2p3--3--3-3-3-3--2-2-3--|
 B|--1--1-1--1-1--3--3-3--3-3----3--3-3-3-3--3-3-3--|
 G|--0--0-0--0-0--2--2-2--2-2----0--0-0-0-0--2-2-2--|
 D|--2--2p0--2p0--0--0-0--0-0----0--0-0-0-0--0-0-0--|
 A|--3--3-3--3-3---------------2-2--2-2-2-2---------|
 E|----------------------------3-3--3-3-3-3---------|

[G]This is for [Em7]all the lonely p[Bm]eople
[G]Thinking that [Em7]life has passed them b[Bm]y
[C]Don't give [D]up until you[Em7] d[Add9]rink from the [G]silver cup[D/F#]
And [C]ride that [D]highway in the [G]sky[D] [Dsus]
[G]This is for [Em7]all the single p[Bm]eople
[G]Thinking that [Em7]love has left them d[Bm]ry[D]
[C]Don't give [D]up until you [Em7] d[Add9]rink from the [G]silver cup[D/F#]
You [C]never [D]know until you [G]try
BRIDGE
Well, I'm [C]on[Em7] my [Am]way
Yes, I'm b[C]ac[Em7]k to[Am] stay
Well, I'm [C]on [Em7]my [Am]way [D]back [G]home [D] [Dsus] Hit it
SOLO SECTION
[G] [Em7]  
 
 e|-------3----3-----0--------00---00---00------|
 B|--------3--33------3--33---22---22---22------|
 G|-----0-----00----0----00---00---00---00------|
 D|-----0-----00-2--2----22---------------------| X 2
 A|--2--2-----22-2--2----22---------------------|
 E|--3--3-----33-0--0----00--1----2----3----2---|

(This parts kinda weird in the recording but heres how I play it)
[C] [D] [Em7] [Aadd9] [G] [D/F#]  
 
 e|------0----------2----2----33---33---33---33--|
 B|----1--1-11-3--3--3---3----33---33---33---33--|
 G|--0-0----00-2--2-----2-----00---00---00---00--|
 D|--2-2----22-0--0-----0------------------------|
 A|--3-3----33--------------2----0---------------|
 E|-----------------------------------3----2-----|

[C] [D] [G] [D] [Dsus]  
 
 e|--0--0-0--0-0--2--2-2--2-2p3--3--3-3-3-3--2-2-3--|
 B|--1--1-1--1-1--3--3-3--3-3----3--3-3-3-3--3-3-3--|
 G|--0--0-0--0-0--2--2-2--2-2----0--0-0-0-0--2-2-2--|
 D|--2--2p0--2p0--0--0-0--0-0----0--0-0-0-0--0-0-0--|
 A|--3--3-3--3-3---------------2-2--2-2-2-2---------|
 E|----------------------------3-3--3-3-3-3---------|

[G]This is for [Em7]all the lonely [Bm]people
[G]Thinking that [Em7]life has passed them b[Bm]y
[C]Don't give [D]up until you [Em7] d[Add9]rink from the [G]silver cup[D/F#]
[C]She'll never [D]take you down or [G]never give you up
[C]You'll never [D]know until you [Em7]try

Important: The song above is NOT stored on the Chordie server. The original song is hosted at www.guitaretab.com. Chordie works as a search engine and provides on-the-fly formatting. Chordie does not index songs against artists'/composers' will. To remove this song please click here.

Text color:
Chord color:
Chord grids: 
Font size:    
Page size: 

Aadd9 Am Bm C D D/F# Dsus Em7 G
Rate #2 of 8 versions

Jango Player

Login - add to songbook

SHARE PAGE  



You need to log in to post comments