Guitar Tabs, Chords and Lyrics
Server problems seems to be fixed. Chordie has been experiencing problems with songs disappearing. These issues now seems to be fixed, but still verifying the fix. If you find anything strange, please email admin@chordie.com.


Valhall Awaits Me  Amon Amarth

As recorded by Amon Amarth
(From the 2006 Album WITH ODEN ON OUR SIDE)
Transcribed by Jamison Palmer
Words and Music by Amon Amarth
Arranged by Amon Amarth
Gtr I (C# F# B E G# C#) - 'Untitled'
Gtr II (C# F# B E G# C#) - 'Untitled'
Gtr III (C# F# B E G# C#) - 'Untitled'
Intro
Q.=124
12/8 2/4
Gtrs I, II
E E E E E E E E E E E E E E E E 4x
 
 ||--------------------------|----------||
 ||o-------------------------|---------o||
 ||--------------------------|----------||
 ||--------------------------|----------||
 ||o-2-----0-----2-----5-----|-2---5---o||
 ||--0-0-0-0-0-0-0-0-0-3-0-0-|-0-0-3-0--||

12/8 2/4 12/8 2/4
[E] [E] [E] [E] [E] [E] [E] [E] [E] [E] [E] [E] [E] [E] [E] [E] [E] [E] [E] [E] [E] [E] [E] [E] [E] [E] [E] [E] [E] [E] [E] [E]  
 
 ||---------------------------|---------|--------------------------|------------|
 ||o--------------------------|---------|--------------------------|------------|
 ||---------------------------|---------|--------------------------|------------|
 ||---------------------------|---------|--------------------------|------------|
 ||o-7-----5-----7-----10-----|-7---5---|-7-----5-----7-----10-----|-7---5------|
 ||----0-0---0-0---0-0----0-0-|---0---0-|---0-0---0-0---0-0----0-0-|---0---0----|

12/8 2/4
[E] [E] [E] [E] [E] [E] [E] [E] [E] [E] [E] [E] [E] [E] [E] [E]  
 
 |----------------------------|---------|
 |----------------------------|---------|
 |----------------------------|---------|
 |----------------------------|---------|
 |-12-----10-----9-----10-----|-9---7---|
 |----0-0----0-0---0-0----0-0-|---0---0-|

1. 2.
12/8 2/4 2/4
E E E E E E E E E E E E Q Q q q
 
 |-------------------------|--------||-------|
 |-------------------------|-------o||-------|
 |-------------------------|--------||-------|
 |-------------------------|--------||-------|
 |-9-9-9-9-9-9-9-9-9-9-9-9-|-9--9--o||-5--5--|
 |-7-7-7-7-7-7-7-7-7-7-7-7-|-7--7---||-3--3--|

Verse
12/8 2/4 12/8 2/4
[E] [E] [E] [E] [E] [E] [E] [E] [E] [E] [E] [E] [E] [E] [E] [E] [E] [E] [E] [E] [E] [E] [E] [E] [E] [E] [E] [E] [E] [E] [E] [E]  
 
 ||---------------------------|---------|--------------------------|------------|
 ||o--------------------------|---------|--------------------------|------------|
 ||---------------------------|---------|--------------------------|------------|
 ||---------------------------|---------|--------------------------|------------|
 ||o-7-----5-----7-----10-----|-7---5---|-7-----5-----7-----10-----|-7---5------|
 ||----0-0---0-0---0-0----0-0-|---0---0-|---0-0---0-0---0-0----0-0-|---0---0----|

12/8 2/4
[E] [E] [E] [E] [E] [E] [E] [E] [E] [E] [E] [E] [E] [E] [E] [E]  
 
 |----------------------------|---------|
 |----------------------------|---------|
 |----------------------------|---------|
 |----------------------------|---------|
 |-12-----10-----9-----10-----|-9---7---|
 |----0-0----0-0---0-0----0-0-|---0---0-|

1. 2.
12/8 2/4 2/4
E E E E E E E E E E E E E E Q q q
 
 |-------------------------|---------||----------|
 |-------------------------|--------o||----------|
 |-------------------------|---------||----------|
 |-------------------------|---------||----------|
 |-9-9-9-9-9-9-9-9-9-9-9-9-|-9-9----o||--9---9---|
 |-7-7-7-7-7-7-7-7-7-7-7-7-|-7-7-----||--7---7---|

Bridge
[4/4] Gtr I
TP TPTP TP TP TP TPTP TP
H. E E +H H H. E E +W
 
 ||-------------|-----------|------------|--------|
 ||o------------|-----------|------------|--------|
 ||-------------|-----------|------------|--------|
 ||-------------|-----------|------------|--------|
 ||o-7------5-7-|-(7)---10--|-9------7-9-|-(9)----|
 ||-------------|-----------|------------|--------|

|
| Gtr II
| TP TP TP TP
| W +W W +W
 
 ||-------------|-----------|------------|--------|
 ||o------------|-----------|------------|--------|
 ||-------------|-----------|------------|--------|
 ||-------------|-----------|------------|--------|
 ||o------------|-----------|-5----------|-(5)----|
 ||--0----------|-(0)-------|------------|--------|

TP TP TP TP TP TP TP
H. Q Q. Q. Q W W
 
 |--------------|----------------|----------|--------|
 |--------------|----------------|----------|--------|
 |--------------|----------------|----------|--------|
 |--------------|----------------|----------|--9-----|
 |-10--------12-|-14----12---10--|-9--------|--------|
 |--------------|----------------|----------|--------|

|
| TP TP TP TP
| W +W W +W
 
 |--------------|----------------|----------|--------|
 |--------------|----------------|----------|--------|
 |--------------|----------------|----------|--------|
 |--------------|----------------|----------|--------|
 |--------------|----------------|----------|--------|
 |--3-----------|-(3)------------|-7--------|-(7)----|

TP TPTP TP TP TP TPTP TP
H. E E +H H H. E E +W
 
 |------------|-----------|------------|--------|
 |------------|-----------|------------|--------|
 |------------|-----------|------------|--------|
 |------------|-----------|------------|--------|
 |-7------5-7-|-(7)---10--|-9------7-9-|-(9)----|
 |------------|-----------|------------|--------|

|
| TP TP TP TP
| W +W W +W
 
 |------------|-----------|------------|--------|
 |------------|-----------|------------|--------|
 |------------|-----------|------------|--------|
 |------------|-----------|------------|--------|
 |------------|-----------|-5----------|-(5)----|
 |-0----------|-(0)-------|------------|--------|

TP TP TP TP TP TP
W +Q. Q. Q W W
 
 |-----------|---------------|----------|---------||
 |-----------|---------------|----------|--------o||
 |-----------|---------------|----------|---------||
 |-----------|---------------|----------|--9------||
 |-10--------|-(10)---9---7--|-9--------|--------o||
 |-----------|---------------|----------|---------||

|
| TP TP TP TP
| W +W W +W
 
 |-----------|---------------|----------|---------||
 |-----------|---------------|----------|--------o||
 |-----------|---------------|----------|---------||
 |-----------|---------------|----------|---------||
 |-----------|---------------|----------|--------o||
 |--3--------|--(3)----------|-7--------|-(7)-----||

Verse 2
12/8 2/4 12/8 2/4
Gtrs I, II
[E] [E] [E] [E] [E] [E] [E] [E] [E] [E] [E] [E] [E] [E] [E] [E] [E] [E] [E] [E] [E] [E] [E] [E] [E] [E] [E] [E] [E] [E] [E] [E]  
 
 ||---------------------------|---------|--------------------------|------------|
 ||o--------------------------|---------|--------------------------|------------|
 ||---------------------------|---------|--------------------------|------------|
 ||---------------------------|---------|--------------------------|------------|
 ||o-7-----5-----7-----10-----|-7---5---|-7-----5-----7-----10-----|-7---5------|
 ||----0-0---0-0---0-0----0-0-|---0---0-|---0-0---0-0---0-0----0-0-|---0---0----|

12/8 2/4
[E] [E] [E] [E] [E] [E] [E] [E] [E] [E] [E] [E] [E] [E] [E] [E]  
 
 |----------------------------|---------|
 |----------------------------|---------|
 |----------------------------|---------|
 |----------------------------|---------|
 |-12-----10-----9-----10-----|-9---7---|
 |----0-0----0-0---0-0----0-0-|---0---0-|

1. 2.
12/8 2/4 2/4
E E E E E E E E E E E E E E Q q q
 
 |-------------------------|---------||---------|
 |-------------------------|--------o||---------|
 |-------------------------|---------||---------|
 |-------------------------|---------||---------|
 |-9-9-9-9-9-9-9-9-9-9-9-9-|-9-9----o||-9--9----|
 |-7-7-7-7-7-7-7-7-7-7-7-7-|-7-7-----||-7--7----|

Bridge 2
12/8 2/4
E E E E E E E E E E E E E E E E 4x
 
 ||--------------------------|-----------||
 ||o-------------------------|----------o||
 ||--------------------------|-----------||
 ||--------------------------|-----------||
 ||o-2-----0-----2-----5-----|-2---5----o||
 ||--0-0-0-0-0-0-0-0-0-3-0-0-|-0-0-3-0---||

Chorus
[4/4] Gtr I
TP TP
 
 |-3-| |-3-| |-3-| |-3-|

[E] [E] [E] [E] [E] [E] [B] [E] [E] [E] [E] [E] [E] [B]  
 
 ||--------------------------|--------------------------|
 ||o-------------------------|--------------------------|
 ||--------------------------|--------------------------|
 ||--------------------------|--------------------------|
 ||o-------------7-----------|-------------10-----------|
 ||--0-0-0-0-0-0-------------|-0-0-0-0-0-0--------------|

|
| Gtr II
 
 | |-3-| |-3-| |-3-| |-3-| |-3-| |-3-| |-3-| |-3-|

| E E E E E E E E E E E E E E E E E E E E E E E E
 
 ||--------------------------|--------------------------|
 ||o-------------------------|--------------------------|
 ||--------------------------|--------------------------|
 ||--------------------------|--------------------------|
 ||o-------------------------|--------------------------|
 ||--0-0-0-0-0-0-0-0-0-0-0-0-|-0-0-0-0-0-0--0-0-0-0-0-0-|

TP TP
 
 |-3-| |-3-| |-3-| |-3-|

[E] [E] [E] [E] [E] [E] [B] [E] [E] [E] [E] [E] [E] [B]  
 
 |-------------------------|---------------------------|
 |-------------------------|---------------------------|
 |-------------------------|---------------------------|
 |-------------------------|---------------------------|
 |-0-0-0-0-0-0-9-----------|-0-0-0-0-0-0-12------------|
 |-------------------------|---------------------------|

|
 
 | |-3-| |-3-| |-3-| |-3-| |-3-| |-3-| |-3-| |-3-|

| E E E E E E E E E E E E E E E E E E E E E E E E
 
 |-------------------------|---------------------------|
 |-------------------------|---------------------------|
 |-------------------------|---------------------------|
 |-------------------------|---------------------------|
 |-------------------------|---------------------------|
 |-5-5-5-5-5-5-5-5-5-5-5-5-|-5-5-5-5-5-5--5-5-5-5-5-5--|

TP TP
 
 |-3-| |-3-| |-3-| |-3-|

[E] [E] [E] [E] [E] [E] [B] [E] [E] [E] [E] [E] [E] [B]  
 
 |-------------------------|-------------------------|
 |-------------------------|-------------------------|
 |-------------------------|-------------------------|
 |-------------5-----------|-------------5-----------|
 |-------------------------|-------------------------|
 |-3-3-3-3-3-3-------------|-3-3-3-3-3-3-------------|

|
 
 | |-3-| |-3-| |-3-| |-3-| |-3-| |-3-| |-3-| |-3-|

| E E E E E E E E E E E E E E E E E E E E E E E E
 
 |-------------------------|-------------------------|
 |-------------------------|-------------------------|
 |-------------------------|-------------------------|
 |-------------------------|-------------------------|
 |-------------------------|-------------------------|
 |-3-3-3-3-3-3-3-3-3-3-3-3-|-3-3-3-3-3-3-3-3-3-3-3-3-|

TP TP
 
 |-3-| |-3-| |-3-| |-3-|

[E] [E] [E] [E] [E] [E] [B] [E] [E] [E] [E] [E] [E] [B]  
 
 |-------------------------|-----------------------------||
 |-------------------------|----------------------------o||
 |-------------------------|-----------------------------||
 |-------------2-----------|-----------------------------||
 |-2-2-2-2-2-2-------------|-2-2-2-2-2-2-5--------------o||
 |-------------------------|-----------------------------||

|
 
 | |-3-| |-3-| |-3-| |-3-| |-3-| |-3-| |-3-| |-3-|

| E E E E E E E E E E E E E E E E E E E E E E E E
 
 |-------------------------|-----------------------------||
 |-------------------------|----------------------------o||
 |-------------------------|-----------------------------||
 |-------------------------|-----------------------------||
 |-------------------------|----------------------------o||
 |-7-7-7-7-7-7-7-7-7-7-7-7-|-7-7-7-7-7-7-7-7-7-7-7-7-----||

TP TP
 
 |-3-| |-3-| |-3-| |-3-|

[E] [E] [E] [E] [E] [E] [B] [E] [E] [E] [E] [E] [E] [B]  
 
 ||-------------------|-------------------|
 ||o------------------|-------------------|
 ||-------------------|-------------------|
 ||-------------------|-------------------|
 ||o-------------7----|-------------10----|
 ||--0-0-0-0-0-0------|-0-0-0-0-0-0-------|

|
| TP TP
 
 | |-3-| |-3-| |-3-| |-3-|

| E E E E E E H E E E E E E H
 
 ||-------------------|-------------------|
 ||o------------------|-------------------|
 ||-------------------|-------------------|
 ||--------------5----|--------------9----|
 ||o------------------|-------------------|
 ||--0-0-0-0-0-0------|-0-0-0-0-0-0-------|

TP TP
 
 |-3-| |-3-| |-3-| |-3-|

[E] [E] [E] [E] [E] [E] [B] [E] [E] [E] [E] [E] [E] [B]  
 
 |------------------|-------------------|
 |------------------|-------------------|
 |------------------|-------------------|
 |------------------|-------------------|
 |-0-0-0-0-0-0-9----|-0-0-0-0-0-0-12----|
 |------------------|-------------------|

|
| TP TP
 
 | |-3-| |-3-| |-3-| |-3-|

| E E E E E E H E E E E E E H
 
 |------------------|-------------------|
 |------------------|-------------------|
 |------------------|-------------------|
 |-------------7----|-------------10----|
 |-0-0-0-0-0-0------|-0-0-0-0-0-0-------|
 |------------------|-------------------|

TP TP TP TP
 
 |-3-| |-3-| |-3-| |-3-| |-3-| |-3-| |-3-| |-3-|

[E] [E] [E] [E] [E] [E] [B] [E] [E] [E] [E] [E] [E] [B] [E] [E] [E] [E] [E] [E] [B] [E] [E] [E] [E] [E] [E] [B]  
 
 |------------------|------------------|------------------|-------------------||
 |------------------|------------------|------------------|------------------o||
 |------------------|------------------|------------------|-------------------||
 |-------------5----|-------------5----|-------------2----|-------------------||
 |------------------|------------------|-2-2-2-2-2-2------|-2-2-2-2-2-2-5----o||
 |-3-3-3-3-3-3------|-3-3-3-3-3-3------|------------------|-------------------||

|
| TP TP TP TP
 
 | |-3-| |-3-| |-3-| |-3-| |-3-| |-3-| |-3-| |-3-|

| E E E E E E H E E E E E E H E E E E E E H E E E E E E H
 
 |------------------|------------------|------------------|-------------------||
 |------------------|------------------|------------------|------------------o||
 |------------------|------------------|------------------|-------------------||
 |-------------5----|-------------5----|-------------2----|-------------------||
 |------------------|------------------|-2-2-2-2-2-2------|-2-2-2-2-2-2-5----o||
 |-3-3-3-3-3-3------|-3-3-3-3-3-3------|------------------|-------------------||

12/8 2/4 12/8 2/4
Gtrs I, II
[E] [E] [E] [E] [E] [E] [E] [E] [E] [E] [E] [E] [E] [E] [E] [E] [E] [E] [E] [E] [E] [E] [E] [E] [E] [E] [E] [E] [E] [E] [E] [E]  
 
 |--------------------------|---------|--------------------------|------------|
 |--------------------------|---------|--------------------------|------------|
 |--------------------------|---------|--------------------------|------------|
 |--------------------------|---------|--------------------------|------------|
 |-7-----5-----7-----10-----|-7---5---|-7-----5-----7-----10-----|-7---5------|
 |---0-0---0-0---0-0----0-0-|---0---0-|---0-0---0-0---0-0----0-0-|---0---0----|

12/8 2/4 12/8 2/4
E E E E E E E E E E E E E E E E E E E E E E E E E E E E Q Q
 
 |----------------------------|---------|-------------------------|---------|
 |----------------------------|---------|-------------------------|---------|
 |----------------------------|---------|-------------------------|---------|
 |----------------------------|---------|-------------------------|---------|
 |-12-----10-----9-----10-----|-9---7---|-9-9-9-9-9-9-9-9-9-9-9-9-|-9---9---|
 |----0-0----0-0---0-0----0-0-|---0---0-|-7-7-7-7-7-7-7-7-7-7-7-7-|-7---7---|

Verse 3
12/8 2/4 12/8 2/4
[E] [E] [E] [E] [E] [E] [E] [E] [E] [E] [E] [E] [E] [E] [E] [E] [E] [E] [E] [E] [E] [E] [E] [E] [E] [E] [E] [E] [E] [E] [E] [E]  
 
 ||---------------------------|---------|--------------------------|------------|
 ||o--------------------------|---------|--------------------------|------------|
 ||---------------------------|---------|--------------------------|------------|
 ||---------------------------|---------|--------------------------|------------|
 ||o-7-----5-----7-----10-----|-7---5---|-7-----5-----7-----10-----|-7---5------|
 ||----0-0---0-0---0-0----0-0-|---0---0-|---0-0---0-0---0-0----0-0-|---0---0----|

12/8 2/4
[E] [E] [E] [E] [E] [E] [E] [E] [E] [E] [E] [E] [E] [E] [E] [E]  
 
 |----------------------------|---------|
 |----------------------------|---------|
 |----------------------------|---------|
 |----------------------------|---------|
 |-12-----10-----9-----10-----|-9---7---|
 |----0-0----0-0---0-0----0-0-|---0---0-|

1. 2.
12/8 2/4 4/4
E E E E E E E E E E E E E E Q q q H
 
 |-------------------------|---------||--------------|
 |-------------------------|--------o||--------------|
 |-------------------------|---------||--------------|
 |-------------------------|---------||--------------|
 |-9-9-9-9-9-9-9-9-9-9-9-9-|-9-9----o||--5---5-------|
 |-7-7-7-7-7-7-7-7-7-7-7-7-|-7-7-----||--3---3-------|

Guitar Solo
Gtr I
W H Q E E
 
 |---------------------------|----------------------------|
 |---------------------------|----------------------------|
 |-/12-----------------------|-11-----------9-----11h12---|
 |---------------------------|----------------------------|
 |---------------------------|----------------------------|
 |---------------------------|----------------------------|

|
| Gtr II
 
 | |-3-| |-3-| |-3-| |-3-| |-3-| |-3-| |-3-| |-3--|

| E E E E E E E E E E E E E E E E E E E E E E E E
 
 |---------------------------|----------------------------|
 |---------------------------|----------------------------|
 |---------------------------|----------------------------|
 |---------------------------|----------------------------|
 |---------------------------|----------------------------|
 |---0-0-0-0-0-0-0-0-0-0-0-0-|--0-0-0-0-0-0-0-0-0--0--0-0-|

[B] [B] [+B] [B]  
 
 |--------------------------|-------------------------------|
 |--------------------------|-------------------------------|
 |-11-----------4-----------|-(4)-------------7-------------|
 |--------------------------|-------------------------------|
 |--------------------------|-------------------------------|
 |--------------------------|-------------------------------|

|
 
 | |-3-| |-3-| |-3-| |-3-| |-3-| |-3-| |-3-| |-3-|

| E E E E E E E E E E E E E E E E E E E E E E E E
 
 |--------------------------|-------------------------------|
 |--------------------------|-------------------------------|
 |--------------------------|-------------------------------|
 |--------------------------|-------------------------------|
 |--5-5-5-5-5-5-5-5-5-5-5-5-|-----5-5-5-5-5-5-5-5-5-5-5-5---|
 |--------------------------|-------------------------------|

E E H. E E H Q
 
 |---------------------------|-------------------------|
 |---------------------------|-------------------------|
 |-4h7---4-------------------|-2h4---2-----------------|
 |---------------------------|-------------------5-----|
 |---------------------------|-------------------------|
 |---------------------------|-------------------------|

|
 
 | |-3-| |-3--| |-3-| |-3-| |-3-| |-3-| |-3-| |-3-|

| E E E E E E E E E E E E E E E E E E E E E E E E
 
 |---------------------------|-------------------------|
 |---------------------------|-------------------------|
 |---------------------------|-------------------------|
 |---------------------------|-------------------------|
 |---------------------------|-------------------------|
 |-3-3-3-3--3-3-3-3-3-3-3-3--|-3-3-3-3-3-3-3-3-3-3-3-3-|

H. Q Q. Q. Q
 
 |--------------------------|-----------------------------|
 |--------------------------|-----------------------------|
 |--------------------------|----------4----------7-------|
 |-4------------------5-----|-7---------------------------|
 |--------------------------|-----------------------------|
 |--------------------------|-----------------------------|

|
 
 | |-3--| |-3-| |-3-| |-3-| |-3--| |-3--| |-3-| |-3-|

| E E E E E E E E E E E E E E E E E E E E E E E E
 
 |--------------------------|-----------------------------|
 |--------------------------|-----------------------------|
 |--------------------------|-----------------------------|
 |--------------------------|-----------------------------|
 |--------------------------|-----------------------------|
 |-7--7-7-7-7-7-7-7-7-7-7-7-|-7--7-7-7-7--7-7-7-7-7-7-7---|

W H Q E E
 
 |---------------------------|----------------------------|
 |---------------------------|----------------------------|
 |-/12-----------------------|-11-----------9-----11h12---|
 |---------------------------|----------------------------|
 |---------------------------|----------------------------|
 |---------------------------|----------------------------|

|
 
 | |-3-| |-3-| |-3-| |-3-| |-3-| |-3-| |-3-| |-3--|

| E E E E E E E E E E E E E E E E E E E E E E E E
 
 |---------------------------|----------------------------|
 |---------------------------|----------------------------|
 |---------------------------|----------------------------|
 |---------------------------|----------------------------|
 |---------------------------|----------------------------|
 |---0-0-0-0-0-0-0-0-0-0-0-0-|--0-0-0-0-0-0-0-0-0--0--0-0-|

~~~~~~~~~~~~~~~~~~~~~~~
H H +H Q Q
 
 |----------------------------|----------------------------------|
 |----------------------------|------------------------10--------|
 |-11---------[7]-------------|-([7])-----------11---------------|
 |----------------------------|----------------------------------|
 |----------------------------|----------------------------------|
 |----------------------------|----------------------------------|

|
 
 | |-3-| |-3--| |-3-| |-3-| |--3--| |-3-| |-3-| |-3-|

| E E E E E E E E E E E E E E E E E E E E E E E E
 
 |----------------------------|----------------------------------|
 |----------------------------|----------------------------------|
 |----------------------------|----------------------------------|
 |----------------------------|----------------------------------|
 |--5-5-5-5-5--5--5-5-5-5-5-5-|---5---5-5-5-5-5--5-5-5--5-5-5----|
 |----------------------------|----------------------------------|

E E H. E E H.
 
 |-----------------------------|-----------------------------|
 |-12h15---12------------------|-10h12---10------------------|
 |-----------------------------|-----------------------------|
 |-----------------------------|-----------------------------|
 |-----------------------------|-----------------------------|
 |-----------------------------|-----------------------------|

|
 
 | |-3--| |-3--| |-3-| |-3-| |-3--| |-3--| |-3-| |-3-|

| E E E E E E E E E E E E E E E E E E E E E E E E
 
 |-----------------------------|-----------------------------|
 |-----------------------------|-----------------------------|
 |-----------------------------|-----------------------------|
 |-----------------------------|-----------------------------|
 |-----------------------------|-----------------------------|
 |--3--3-3--3--3-3-3-3-3-3-3-3-|--3--3-3--3--3-3-3-3-3-3-3-3-|

E E H. Q. Q. Q
 
 |-----------------------------|-----------12----------14--------|
 |-12h15---12------------------|-15------------------------------|
 |-----------------------------|---------------------------------|
 |-----------------------------|---------------------------------|
 |-----------------------------|---------------------------------|
 |-----------------------------|---------------------------------|

|
 
 | |-3--| |-3--| |-3-| |-3-| |-3--| |--3--| |-3-| |-3-|

| E E E E E E E E E E E E E E E E E E E E E E E E
 
 |-----------------------------|---------------------------------|
 |-----------------------------|---------------------------------|
 |-----------------------------|---------------------------------|
 |-----------------------------|---------------------------------|
 |-----------------------------|---------------------------------|
 |--7--7-7--7--7-7-7-7-7-7-7-7-|--7--7-7-7--7--7-7-7-7--7-7-7----|

Gtr I
[E] [E] [E] [E] [E] [E] [E] [E] [E] [E] [E] [E] [E] [E] [E] [E]  
 
 ||--15-12-14-15-12-14-15-12---------|-15-12-14-15-12-14-15-12---------|
 ||o---------------------------------|---------------------------------|
 ||----------------------------------|---------------------------------|
 ||----------------------------------|---------------------------------|
 ||o---------------------------------|---------------------------------|
 ||----------------------------------|---------------------------------|

|
| Gtr III
| E E E E E E E E E E E E E E E E
 
 ||--12--8-10-12--8-10-12--8---------|-12--8-10-12--8-10-12--8---------|
 ||o---------------------------------|---------------------------------|
 ||----------------------------------|---------------------------------|
 ||----------------------------------|---------------------------------|
 ||o---------------------------------|---------------------------------|
 ||----------------------------------|---------------------------------|

|
| Gtr II
 
 | |--3--| |--3--| |-3--| |-3-| |--3--| |--3--| |-3--| |-3-|

| E E E E E E E E E E E E E E E E E E E E E E E E
 
 ||----------------------------------|---------------------------------|
 ||o---------------------------------|---------------------------------|
 ||----------------------------------|---------------------------------|
 ||----------------------------------|---------------------------------|
 ||o---------------------------------|---------------------------------|
 ||---0--0--0--0--0--0--0--0-0-0-0-0-|--0--0--0--0--0--0--0--0-0-0-0-0-|

[E] [E] [E] [E] [E] [E] [E] [E] [E] [E] [E] [E] [E] [E] [E] [E]  
 
 |-14-10-12-14-10-12-14-10---------|-14-10-12-14-10-12-14-10------------|
 |---------------------------------|------------------------------------|
 |---------------------------------|------------------------------------|
 |---------------------------------|------------------------------------|
 |---------------------------------|------------------------------------|
 |---------------------------------|------------------------------------|

|
| E E E E E E E E E E E E E E E E
 
 |-10--7--8-10--7--8-10--7---------|-10--7--8-10--7--8-10--7------------|
 |---------------------------------|------------------------------------|
 |---------------------------------|------------------------------------|
 |---------------------------------|------------------------------------|
 |---------------------------------|------------------------------------|
 |---------------------------------|------------------------------------|

|
 
 | |--3--| |--3--| |-3--| |-3-| |--3--| |--3--| |-3--| |-3-|

| E E E E E E E E E E E E E E E E E E E E E E E E
 
 |---------------------------------|------------------------------------|
 |---------------------------------|------------------------------------|
 |---------------------------------|------------------------------------|
 |---------------------------------|------------------------------------|
 |--5--5--5--5--5--5--5--5-5-5-5-5-|--5--5--5--5--5--5--5--5-5-5-5-5----|
 |---------------------------------|------------------------------------|

[E] [E] [E] [E] [E] [E] [E] [E] [E] [E] [E] [E] [E] [E] [E] [E]  
 
 |-12-8-10-12-8-10-12-8---------|-12-8-10-12-8-10-12-8---------|
 |------------------------------|------------------------------|
 |------------------------------|------------------------------|
 |------------------------------|------------------------------|
 |------------------------------|------------------------------|
 |------------------------------|------------------------------|

|
| E E E E E E E E E E E E E E E E
 
 |--8-5--7--8-5--7--8-5---------|--8-5--7--8-5--7--8-5---------|
 |------------------------------|------------------------------|
 |------------------------------|------------------------------|
 |------------------------------|------------------------------|
 |------------------------------|------------------------------|
 |------------------------------|------------------------------|

|
 
 | |-3--| |-3--| |-3-| |-3-| |-3--| |-3--| |-3-| |-3-|

| E E E E E E E E E E E E E E E E E E E E E E E E
 
 |------------------------------|------------------------------|
 |------------------------------|------------------------------|
 |------------------------------|------------------------------|
 |------------------------------|------------------------------|
 |------------------------------|------------------------------|
 |--3-3--3--3-3--3--3-3-3-3-3-3-|--3-3--3--3-3--3--3-3-3-3-3-3-|

[E] [E] [E] [E] [E] [E] [E] [E] [E] [E] [E] [E] [E] [E] [E] [E]  
 
 |-10-7-8-10-7-8-10-7---------|-10-7-8-10-7-8-10-7-------------||
 |----------------------------|-------------------------------o||
 |----------------------------|--------------------------------||
 |----------------------------|--------------------------------||
 |----------------------------|-------------------------------o||
 |----------------------------|--------------------------------||

|
| E E E E E E E E E E E E E E E E
 
 |--7-3-5--7-3-5--7-3---------|--7-3-5--7-3-5--7-3-------------||
 |----------------------------|-------------------------------o||
 |----------------------------|--------------------------------||
 |----------------------------|--------------------------------||
 |----------------------------|-------------------------------o||
 |----------------------------|--------------------------------||

|
 
 | |-3-| |-3-| |-3-| |-3-| |-3-| |-3-| |-3-| |-3-|

| E E E E E E E E E E E E E E E E E E E E E E E E
 
 |----------------------------|--------------------------------||
 |----------------------------|-------------------------------o||
 |----------------------------|--------------------------------||
 |----------------------------|--------------------------------||
 |----------------------------|-------------------------------o||
 |--7-7-7--7-7-7--7-7-7-7-7-7-|--7-7-7--7-7-7--7-7-7-7-7-7-----||

Chorus
[4/4] Gtr I
TP TP
 
 |-3-| |-3-| |-3-| |-3-|

[E] [E] [E] [E] [E] [E] [B] [E] [E] [E] [E] [E] [E] [B]  
 
 ||--------------------------|--------------------------|
 ||o-------------------------|--------------------------|
 ||--------------------------|--------------------------|
 ||--------------------------|--------------------------|
 ||o-------------7-----------|-------------10-----------|
 ||--0-0-0-0-0-0-------------|-0-0-0-0-0-0--------------|

|
| Gtr II
 
 | |-3-| |-3-| |-3-| |-3-| |-3-| |-3-| |-3-| |-3-|

| E E E E E E E E E E E E E E E E E E E E E E E E
 
 ||--------------------------|--------------------------|
 ||o-------------------------|--------------------------|
 ||--------------------------|--------------------------|
 ||--------------------------|--------------------------|
 ||o-------------------------|--------------------------|
 ||--0-0-0-0-0-0-0-0-0-0-0-0-|-0-0-0-0-0-0--0-0-0-0-0-0-|

TP TP
 
 |-3-| |-3-| |-3-| |-3-|

[E] [E] [E] [E] [E] [E] [B] [E] [E] [E] [E] [E] [E] [B]  
 
 |-------------------------|---------------------------|
 |-------------------------|---------------------------|
 |-------------------------|---------------------------|
 |-------------------------|---------------------------|
 |-0-0-0-0-0-0-9-----------|-0-0-0-0-0-0-12------------|
 |-------------------------|---------------------------|

|
 
 | |-3-| |-3-| |-3-| |-3-| |-3-| |-3-| |-3-| |-3-|

| E E E E E E E E E E E E E E E E E E E E E E E E
 
 |-------------------------|---------------------------|
 |-------------------------|---------------------------|
 |-------------------------|---------------------------|
 |-------------------------|---------------------------|
 |-------------------------|---------------------------|
 |-5-5-5-5-5-5-5-5-5-5-5-5-|-5-5-5-5-5-5--5-5-5-5-5-5--|

TP TP
 
 |-3-| |-3-| |-3-| |-3-|

[E] [E] [E] [E] [E] [E] [B] [E] [E] [E] [E] [E] [E] [B]  
 
 |-------------------------|-------------------------|
 |-------------------------|-------------------------|
 |-------------------------|-------------------------|
 |-------------5-----------|-------------5-----------|
 |-------------------------|-------------------------|
 |-3-3-3-3-3-3-------------|-3-3-3-3-3-3-------------|

|
 
 | |-3-| |-3-| |-3-| |-3-| |-3-| |-3-| |-3-| |-3-|

| E E E E E E E E E E E E E E E E E E E E E E E E
 
 |-------------------------|-------------------------|
 |-------------------------|-------------------------|
 |-------------------------|-------------------------|
 |-------------------------|-------------------------|
 |-------------------------|-------------------------|
 |-3-3-3-3-3-3-3-3-3-3-3-3-|-3-3-3-3-3-3-3-3-3-3-3-3-|

TP TP
 
 |-3-| |-3-| |-3-| |-3-|

[E] [E] [E] [E] [E] [E] [B] [E] [E] [E] [E] [E] [E] [B]  
 
 |-------------------------|-----------------------------||
 |-------------------------|----------------------------o||
 |-------------------------|-----------------------------||
 |-------------2-----------|-----------------------------||
 |-2-2-2-2-2-2-------------|-2-2-2-2-2-2-5--------------o||
 |-------------------------|-----------------------------||

|
 
 | |-3-| |-3-| |-3-| |-3-| |-3-| |-3-| |-3-| |-3-|

| E E E E E E E E E E E E E E E E E E E E E E E E
 
 |-------------------------|-----------------------------||
 |-------------------------|----------------------------o||
 |-------------------------|-----------------------------||
 |-------------------------|-----------------------------||
 |-------------------------|----------------------------o||
 |-7-7-7-7-7-7-7-7-7-7-7-7-|-7-7-7-7-7-7-7-7-7-7-7-7-----||

TP TP
 
 |-3-| |-3-| |-3-| |-3-|

[E] [E] [E] [E] [E] [E] [B] [E] [E] [E] [E] [E] [E] [B]  
 
 ||-------------------|-------------------|
 ||o------------------|-------------------|
 ||-------------------|-------------------|
 ||-------------------|-------------------|
 ||o-------------7----|-------------10----|
 ||--0-0-0-0-0-0------|-0-0-0-0-0-0-------|

|
| TP TP
 
 | |-3-| |-3-| |-3-| |-3-|

| E E E E E E H E E E E E E H
 
 ||-------------------|-------------------|
 ||o------------------|-------------------|
 ||-------------------|-------------------|
 ||--------------5----|--------------9----|
 ||o------------------|-------------------|
 ||--0-0-0-0-0-0------|-0-0-0-0-0-0-------|

TP TP
 
 |-3-| |-3-| |-3-| |-3-|

[E] [E] [E] [E] [E] [E] [B] [E] [E] [E] [E] [E] [E] [B]  
 
 |------------------|-------------------|
 |------------------|-------------------|
 |------------------|-------------------|
 |------------------|-------------------|
 |-0-0-0-0-0-0-9----|-0-0-0-0-0-0-12----|
 |------------------|-------------------|

|
| TP TP
 
 | |-3-| |-3-| |-3-| |-3-|

| E E E E E E H E E E E E E H
 
 |------------------|-------------------|
 |------------------|-------------------|
 |------------------|-------------------|
 |-------------7----|-------------10----|
 |-0-0-0-0-0-0------|-0-0-0-0-0-0-------|
 |------------------|-------------------|

TP TP TP TP
 
 |-3-| |-3-| |-3-| |-3-| |-3-| |-3-| |-3-| |-3-|

[E] [E] [E] [E] [E] [E] [B] [E] [E] [E] [E] [E] [E] [B] [E] [E] [E] [E] [E] [E] [B] [E] [E] [E] [E] [E] [E] [B]  
 
 |------------------|------------------|------------------|-------------------||
 |------------------|------------------|------------------|------------------o||
 |------------------|------------------|------------------|-------------------||
 |-------------5----|-------------5----|-------------2----|-------------------||
 |------------------|------------------|-2-2-2-2-2-2------|-2-2-2-2-2-2-5----o||
 |-3-3-3-3-3-3------|-3-3-3-3-3-3------|------------------|-------------------||

|
| TP TP TP TP
 
 | |-3-| |-3-| |-3-| |-3-| |-3-| |-3-| |-3-| |-3-|

| E E E E E E H E E E E E E H E E E E E E H E E E E E E H
 
 |------------------|------------------|------------------|-------------------||
 |------------------|------------------|------------------|------------------o||
 |------------------|------------------|------------------|-------------------||
 |-------------5----|-------------5----|-------------2----|-------------------||
 |------------------|------------------|-2-2-2-2-2-2------|-2-2-2-2-2-2-5----o||
 |-3-3-3-3-3-3------|-3-3-3-3-3-3------|------------------|-------------------||

12/8 2/4 12/8
Gtr I Gtrs I, II
E E E E E E E E E E E E E E E E E E E E E E E Q Q.
 
 |--------------------------|---------|------------------------*|
 |--------------------------|---------|------------------------*|
 |--------------------------|---------|------------------------*|
 |--------------------------|---------|------------------------*|
 |-7-----5-----7-----10-----|-7---5---|-2-----0-----2----------*|
 |---0-0---0-0---0-0----0-0-|---0---0-|-0-0-0-0-0-0-0----------*|

Duration Legend
 
 ---------------
 W - whole; H - half; Q - quarter; E - 8th; S - 16th; T - 32nd; X - 64th; a - acciaccatura

+ - note tied to previous; . - note dotted; .. - note double dotted
Uncapitalized letters represent notes that are staccato (1/2 duration)
Irregular groupings are notated above the duration line
Duration letters will always appear directly above the note/fret number it represents the
duration for. Duration letters with no fret number below them represent rests. Multi-
bar rests are notated in the form Wxn, where n is the number of bars to rest for. Low
melody durations appear below the staff
Tablature Legend
 
 ----------------

h - hammer-on
p - pull-off
b - bend
pb - pre-bend
r - bend release (if no number after the r, then release immediately)
/\ - slide into or out of (from/to "nowhere")
s - legato slide
S - shift slide
- natural harmonic
(n) - artificial harmonic
n(n) - tapped harmonic
~ - vibrato
tr - trill
T - tap
TP - trem. picking
PM - palm muting
\n/ - tremolo bar dip; n = amount to dip
\n - tremolo bar down
n/ - tremolo bar up
/n\ - tremolo bar inverted dip
= - hold bend; also acts as connecting device for hammers/pulls
- volume swell (louder/softer)
x - on rhythm slash represents muted slash
o - on rhythm slash represents single note slash
Misc Legend
 
 -----------

| - bar
|| - double bar
||o - repeat start
o|| - repeat end
*| - double bar (ending)
: - bar (freetime)
$ - Segno
& - Coda
Tempo markers - = BPM(8/16=s8/s16), where s8 = swing 8ths, s16 = swing 16ths

Important: The song above is NOT stored on the Chordie server. The original song is hosted at www.guitaretab.com. Chordie works as a search engine and provides on-the-fly formatting. Chordie does not index songs against artists'/composers' will. To remove this song please click here.

Text color:
Chord color:
Chord grids: 
Font size:    
Page size: 

B E
Rate #1 of 2 versions

Login - add to songbook

SHARE PAGE  



You need to log in to post comments