Guitar Tabs, Chords and Lyrics
Major upgrade!! After one year development the new version of Chordie is now online! Please give feedback.


The Dragonâ??s Flight Across the Waves   Amon Amarth

 
 |----------------------------------------|
 |----------------------------------------|
 |----------------------------------------|
 |-----0"--------0"---------0"-----1"-----|
 |-3"-------3"--------3"------------------|
 |----------------------------------------|

 


 x1


 Riff 1 Figure 1


 

 
 |--------------------------------||-----------------------------|
 |--------------------------------||-----------------------------|
 |--------------------------------||-----------------------------|
 |------1"----0"---1"---0"----1"--||-----------------------------|
 |--3"----------------------------||--3--2-2--3--3-3--3--2-2--3--|
 |--------------------------------||--1--0-0--1--1-1--1--0-0--1--|

 


 x1 . . . . . . . . . . x2


 Figure 2 Riff 2


 

 
 |--------------------------------||-------------------------------------|
 |--------------------------------||-------------------------------------|
 |---------------1"--0"-----1"----||-------------------------------------|
 |------1"--0"--------------------||--8--6--8---6--5---6--6--5---6-5-----|
 |--3"----------------------------||-------------------------------------|
 |--------------------------------||-------------------------------------|

 


 x1 x2


 Riff 2b(2nd ending)


 

 
 ---------------------------------|
 ---------------------------------|
 ---------------------------------|
 --8"-----------------------------|
 -----6"--8"---6"--5"-6"--5"--6"--|
 ---------------------------------|

 


 x3


 Play Riff 2 x 4


 


 Riff 3(Over bass lines)


 

 
 |---------------------||------------------------||----------^------|
 |---------------------||------------------------||---------[9]-----|
 |---------------------||------------------------||-----------------|
 |---------------------||------------------------||-----------------|
 |--3--3---2---3--3----||---3--3----3-3-3-3--3---||--3--3----3------|
 |--1--1---0---1--1----||---1--1----1-1-1-1--1---||--1--1----1------|

 


 x1


 Riff 4


 

 
 |--^-------------------------||-----------------------------|
 |-[8]------------------------||-----------------------------|
 |--0"--3"--------0"--3"------||--1"--0"-------1"---0"-------|
 |----------3"------------3"--||----------3"------------3"---|
 |----------------------------||-----------------------------|
 |----------------------------||-----------------------------|

 


 x2


 Play Riff 1/Figure 1 x 4 each


 


 Play Riff 2 x 2 (W/ shorter ending)


 


 Riff 5 - Fill 1


 

 
 ------------------------------|
 ------------------------------|
 ------------------------------|
 ------------------------------|
 --3-3-3--3-3-3-3--3-----------|
 --1-1-1--1-1-1-1--1-----------|

 


 . . . . . . . .


 


 Riff 6 (Over solo)


 

 
 |---------------------------------|
 |---------------------------------|
 |---------------------------------|
 |---------------------------------|
 |--3"-----------------------(6)---|
 |--------4"---3"-----1"-----(4)---|

 


 


 Play Riff 2 x 2


 


 Play Riff 2b x 8


 


 Play Figure 2 x 1


 


 Riff 7 - End.


 

 
 |------------------------------|
 |------------------------------|
 |------------------------------|
 |------------------------------|
 |--3---2-2---3---3-3-3-3--3----|
 |--1---0-0---1---1-1-1-1--1----|


Important: The song above is NOT stored on the Chordie server. The original song is hosted at www.guitaretab.com. Chordie works as a search engine and provides on-the-fly formatting. Chordie does not index songs against artists'/composers' will. To remove this song please click here.

This song is displayed as text-only. Transposing and tuning is only available for chordpro-songs.
Rate #2 of 2 versions

Login - add to songbook

SHARE PAGE  




You need to log in to post comments