Guitar Tabs, Chords and Lyrics
Server problems seems to be fixed. Chordie has been experiencing problems with songs disappearing. These issues now seems to be fixed, but still verifying the fix. If you find anything strange, please email admin@chordie.com.


Versus the World  Amon Amarth

As recorded by Amon Amarth
(From the 2004 Album VERSUS THE WORLD)
Gtr I (B E A D F# B) - 'Untitled'
Gtr II (B E A D F# B) - 'Untitled'
Intro
Q=130
N.C.
[4/4] Gtrs I, II
 
 |-3-| |-3-| |-3-| |-3-| |-3-| |-3-| |-3-| |-3-|

[E] [E] [E] [E] [E] [E] [E] [E] [E] [E] [E] [E] [E] [E] [E] [E] [E] [E] [E] [E] [E] [E] [E] [E]  
 
 ||--------------------------|-------------------------|
 ||o-------------------------|-------------------------|
 ||--------------------------|-------------------------|
 ||--------------------7-7-7-|-------7-7-7-6-6-6-------|
 ||o-9-9-9-9-9-9-9-9-9-------|-9-9-9-------------7-7-7-|
 ||--------------------------|-------------------------|

N.C.
 
 |-3-| |-3-| |-3-| |-3-| |-3-| |-3-| |-3-| |-3-|

E E E E E E E E E E E E E E E E E E E E E E E E 4x
 
 |-------------------------|--------------------------||
 |-------------------------|-------------------------o||
 |-------------------------|--------------------------||
 |-------------------------|--------------------------||
 |-------------------------|-------------7-7-7-7-7-7-o||
 |-9-9-9-9-9-9-9-9-9-9-9-9-|-9-9-9-9-9-9--------------||

N.C.
Gtr I
TP TP TP TP TP TP TP TP TP TP
H. Q H Q Q H. Q H Q Q
 
 ||-------------|------------|------------|-------------|
 ||o------------|------------|------------|-------------|
 ||-------------|------------|------------|-------------|
 ||----------7--|-6----7--9--|-6-------7--|-6----7--9---|
 ||o-9----------|------------|------------|-------------|
 ||-------------|------------|------------|-------------|

|
| Gtr II
| TP TP TP TP TP
| W W W H H
 
 ||-------------|------------|------------|-------------|
 ||o------------|------------|------------|-------------|
 ||-------------|------------|------------|-------------|
 ||-------------|------------|------------|-------------|
 ||o-9----------|-9----------|------------|------7------|
 ||-------------|------------|-9----------|-9-----------|

N.C. E5
TP TP TP TP TP TP TP TP
|-3-|
H. Q H Q Q H. Q H E E E Q
 
 |------------|------------|------------|-----------------||
 |------------|------------|------------|----------------o||
 |------------|------------|------------|-----------------||
 |---------7--|-6----7--9--|-6-------7--|-6---------------||
 |-9----------|------------|------------|------2-2-2-2---o||
 |------------|------------|------------|------0-0-0-0----||

|
| TP TP TP TP
| |-3-|
| W W W H E E E Q
 
 |------------|------------|------------|-----------------||
 |------------|------------|------------|----------------o||
 |------------|------------|------------|-----------------||
 |------------|------------|------------|-----------------||
 |-9----------|-9----------|------------|------2-2-2-2---o||
 |------------|------------|-9----------|-9----0-0-0-0----||

Bridge
N.C.
 
 |-3-| |-3-| |-3-| |-3-|

W E E E E E E E E E E E E
 
 |--------------------------|--------------------------|
 |--------------------------|--------------------------|
 |--------------------------|--------------------------|
 |--------------------------|--------------------------|
 |--------------------------|-/9-9-9-9-9-9-9-9-9-9-9-9-|
 |--------------------------|--------------------------|

|
 
 | |-3-| |-3-| |-3-| |-3-| |-3-| |-3-| |-3-| |-3-|

| E E E E E E E E E E E E E E E E E E E E E E E E
 
 |--------------------------|--------------------------|
 |--------------------------|--------------------------|
 |--------------------------|--------------------------|
 |--------------------------|--------------------------|
 |-/9-9-9-9-9-9-9-9-9-9-9-9-|-/9-9-9-9-9-9-9-9-9-9-9-9-|
 |--------------------------|--------------------------|

Verse
N.C.
Gtrs I, II
TP TP TP TP TP TP TP TP TP TP
H. Q Q Q Q Q H. Q H H 4x
 
 ||-------------|-------------|------------|------------||
 ||o------------|-------------|------------|-----------o||
 ||-------------|-------------|------------|------------||
 ||-------------|-------------|------------|------------||
 ||o------------|----------7--|-4-------2--|-4----0----o||
 ||--2-------0--|-2--5--4-----|------------|------------||

Chorus
[G#5]Gtr I[F#G#5] [F#5] [G#5] [F#G#5] [F#5]
TP TP TP TP TP
H. Q H Q Q
 
 ||-----------------------------------|---------------------------------|
 ||o----------------------------------|---------------------------------|
 ||---------------------------4-------|-3---------------4-------6-------|
 ||--6--------------------------------|---------------------------------|
 ||o----------------------------------|---------------------------------|
 ||-----------------------------------|---------------------------------|

|
| Gtr II
 
 | |--3---| |--3--| |--3--| |--3--| |--3--| |--3--| |--3--| |--3--|

| E +E E E +E E E +E E E +E E E +E E E +E E E +E E E +E E
 
 ||-----------------------------------|---------------------------------|
 ||o----------------------------------|---------------------------------|
 ||-----------------------------------|---------------------------------|
 ||-----------------------------------|---------------------------------|
 ||o-6--(6)-6-6-(6)-4S6-(6)-6-6-(6)-4S|=6-(6)-6-6-(6)-4S6-(6)-6-6-(6)-4-|
 ||--4--(4)-4-4-(4)-2S4-(4)-4-4-(4)-2S|=4-(4)-4-4-(4)-2S4-(4)-4-4-(4)-2-|

[D#5]TP TP TP [F#5] TP TP
H. Q H Q Q
 
 |----------------------------------|---------------------------------------|
 |----------------------------------|---------------------------------------|
 |-3------------------------4-------|-3----------------4----------6---------|
 |----------------------------------|---------------------------------------|
 |----------------------------------|---------------------------------------|
 |----------------------------------|---------------------------------------|

|
 
 | |--3---| |--3--| |--3--| |--3--| |--3--| |--3--| |---3---| |---3---|

| E +E E E +E E E +E E E +E E E +E E E +E E E +E E E +E E
 
 |----------------------------------|---------------------------------------|
 |----------------------------------|---------------------------------------|
 |----------------------------------|---------------------------------------|
 |-8--(8)-8-8-(8)-8-8-(8)-8-8-(8)-8-|-8-(8)-8-8-(8)-8-11-(11)-11-11-(11)-11-|
 |-6--(6)-6-6-(6)-6-6-(6)-6-6-(6)-6-|-6-(6)-6-6-(6)-6--9--(9)--9--9--(9)--9-|
 |----------------------------------|---------------------------------------|

[G#5]TP [F#G#5] TP [F#5] [G#5]TP [F#G#5] TP TP[F#5]
H. Q H Q Q
 
 |----------------------------------|---------------------------------|
 |----------------------------------|---------------------------------|
 |--------------------------4-------|-3---------------4-------6-------|
 |-6--------------------------------|---------------------------------|
 |----------------------------------|---------------------------------|
 |----------------------------------|---------------------------------|

|
 
 | |--3---| |--3--| |--3--| |--3--| |--3--| |--3--| |--3--| |--3--|

| E +E E E +E E E +E E E +E E E +E E E +E E E +E E E +E E
 
 |----------------------------------|---------------------------------|
 |----------------------------------|---------------------------------|
 |----------------------------------|---------------------------------|
 |----------------------------------|---------------------------------|
 |-6--(6)-6-6-(6)-4S6-(6)-6-6-(6)-4S|=6-(6)-6-6-(6)-4S6-(6)-6-6-(6)-4-|
 |-4--(4)-4-4-(4)-2S4-(4)-4-4-(4)-2S|=4-(4)-4-4-(4)-2S4-(4)-4-4-(4)-2-|

[D#5] [F#5] 
TP TP TP[2/4]
|-3-| |-3-|
H. Q H E E E Q E E E Q
 
 |----------------------------------|---------------------------||------------|
 |----------------------------------|--------------------------o||------------|
 |-3------------------------4-------|-3-------------------------||------------|
 |----------------------------------|---------------------------||------------|
 |----------------------------------|-----------------4-4-4-4--o||-4-4-4-4----|
 |----------------------------------|-----------------2-2-2-2---||-2-2-2-2----|

|
 
 | |--3---| |--3--| |--3--| |--3--| |--3--| |--3--| |-3-| |-3-|

| E +E E E +E E E +E E E +E E E +E E E +E E E E E Q E E E Q
 
 |----------------------------------|---------------------------||------------|
 |----------------------------------|--------------------------o||------------|
 |----------------------------------|---------------------------||------------|
 |-8--(8)-8-8-(8)-8-8-(8)-8-8-(8)-8-|-8-(8)-8-8-(8)-8-----------||------------|
 |-6--(6)-6-6-(6)-6-6-(6)-6-6-(6)-6-|-6-(6)-6-6-(6)-6-4-4-4-4--o||-4-4-4-4----|
 |----------------------------------|-----------------2-2-2-2---||-2-2-2-2----|

Verse
N.C.
[4/4] Gtrs I, II
TP TP TP TP TP TP TP TP TP TP
H. Q Q Q Q Q H. Q H H 4x
 
 ||-------------|-------------|------------|------------||
 ||o------------|-------------|------------|-----------o||
 ||-------------|-------------|------------|------------||
 ||-------------|-------------|------------|------------||
 ||o------------|----------7--|-4-------2--|-4----0----o||
 ||--2-------0--|-2--5--4-----|------------|------------||

Chorus
[G#5]Gtr I[F#G#5] [F#5] [G#5] [F#G#5] [F#5]
TP TP TP TP TP
H. Q H Q Q
 
 ||-----------------------------------|---------------------------------|
 ||o----------------------------------|---------------------------------|
 ||---------------------------4-------|-3---------------4-------6-------|
 ||--6--------------------------------|---------------------------------|
 ||o----------------------------------|---------------------------------|
 ||-----------------------------------|---------------------------------|

|
| Gtr II
 
 | |--3---| |--3--| |--3--| |--3--| |--3--| |--3--| |--3--| |--3--|

| E +E E E +E E E +E E E +E E E +E E E +E E E +E E E +E E
 
 ||-----------------------------------|---------------------------------|
 ||o----------------------------------|---------------------------------|
 ||-----------------------------------|---------------------------------|
 ||-----------------------------------|---------------------------------|
 ||o-6--(6)-6-6-(6)-4S6-(6)-6-6-(6)-4S|=6-(6)-6-6-(6)-4S6-(6)-6-6-(6)-4-|
 ||--4--(4)-4-4-(4)-2S4-(4)-4-4-(4)-2S|=4-(4)-4-4-(4)-2S4-(4)-4-4-(4)-2-|

[D#5]TP TP TP [F#5] TP TP
H. Q H Q Q
 
 |----------------------------------|---------------------------------------|
 |----------------------------------|---------------------------------------|
 |-3------------------------4-------|-3----------------4----------6---------|
 |----------------------------------|---------------------------------------|
 |----------------------------------|---------------------------------------|
 |----------------------------------|---------------------------------------|

|
 
 | |--3---| |--3--| |--3--| |--3--| |--3--| |--3--| |---3---| |---3---|

| E +E E E +E E E +E E E +E E E +E E E +E E E +E E E +E E
 
 |----------------------------------|---------------------------------------|
 |----------------------------------|---------------------------------------|
 |----------------------------------|---------------------------------------|
 |-8--(8)-8-8-(8)-8-8-(8)-8-8-(8)-8-|-8-(8)-8-8-(8)-8-11-(11)-11-11-(11)-11-|
 |-6--(6)-6-6-(6)-6-6-(6)-6-6-(6)-6-|-6-(6)-6-6-(6)-6--9--(9)--9--9--(9)--9-|
 |----------------------------------|---------------------------------------|

[G#5]TP [F#G#5] TP [F#5] [G#5]TP [F#G#5] TP TP[F#5]
H. Q H Q Q
 
 |----------------------------------|---------------------------------|
 |----------------------------------|---------------------------------|
 |--------------------------4-------|-3---------------4-------6-------|
 |-6--------------------------------|---------------------------------|
 |----------------------------------|---------------------------------|
 |----------------------------------|---------------------------------|

|
 
 | |--3---| |--3--| |--3--| |--3--| |--3--| |--3--| |--3--| |--3--|

| E +E E E +E E E +E E E +E E E +E E E +E E E +E E E +E E
 
 |----------------------------------|---------------------------------|
 |----------------------------------|---------------------------------|
 |----------------------------------|---------------------------------|
 |----------------------------------|---------------------------------|
 |-6--(6)-6-6-(6)-4S6-(6)-6-6-(6)-4S|=6-(6)-6-6-(6)-4S6-(6)-6-6-(6)-4-|
 |-4--(4)-4-4-(4)-2S4-(4)-4-4-(4)-2S|=4-(4)-4-4-(4)-2S4-(4)-4-4-(4)-2-|

[D#5]TP TP TP[F#5]
 
 |-3-| |-3-| |-3-|

H. Q H E E E q E E E q E E E q
 
 |----------------------------------|---------------------------||--------------------|
 |----------------------------------|--------------------------o||--------------------|
 |-3------------------------4-------|-3-------------------------||--------------------|
 |----------------------------------|---------------------------||--------------------|
 |----------------------------------|-----------------4-4-4-4--o||-4-4-4-4--4-4-4-4---|
 |----------------------------------|-----------------2-2-2-2---||-2-2-2-2--2-2-2-2---|

|
 
 | |--3---| |--3--| |--3--| |--3--| |--3--| |--3--| |-3-| |-3-| |-3-|

| E +E E E +E E E +E E E +E E E +E E E +E E E E E q E E E q E E E q
 
 |----------------------------------|---------------------------||--------------------|
 |----------------------------------|--------------------------o||--------------------|
 |----------------------------------|---------------------------||--------------------|
 |-8--(8)-8-8-(8)-8-8-(8)-8-8-(8)-8-|-8-(8)-8-8-(8)-8-----------||--------------------|
 |-6--(6)-6-6-(6)-6-6-(6)-6-6-(6)-6-|-6-(6)-6-6-(6)-6-4-4-4-4--o||-4-4-4-4--4-4-4-4---|
 |----------------------------------|-----------------2-2-2-2---||-2-2-2-2--2-2-2-2---|

Bridge
[F#5]Gtrs I, II
 
 |-3-| |-3-| |-3-| |-3-|

E E E q E E E q E E E q E E E q
 
 ||--------------------|-------------------|
 ||o-------------------|-------------------|
 ||--------------------|-------------------|
 ||--------------------|-------------------|
 ||o-4-4-4-4--4-4-4-4--|-4-4-4-4--4-4-4-4--|
 ||--2-2-2-2--2-2-2-2--|-2-2-2-2--2-2-2-2--|
 |-3-| |-3-| |-3-| |-3-|

E E E q E E E q E E E q E E E q
 
 |-------------------|---------------------||
 |-------------------|--------------------o||
 |-------------------|---------------------||
 |-------------------|---------------------||
 |-4-4-4-4--4-4-4-4--|-4-4-4-4--4-4-4-4---o||
 |-2-2-2-2--2-2-2-2--|-2-2-2-2--2-2-2-2----||

Interlude
[F#5]Gtr I
 
 |-3-| |-3-| |-3-| |-3-| |-3-| |-3-| |-3-| |-3-|

[E] [E] [E] [E] [E] [E] [E] [E] [E] [E] [E] [E] [E] [E] [E] [E] [E] [E] [E] [E] [E] [E] [E] [E]  
 
 ||--------------------------|-------------------------|
 ||o-------------------------|-------------------------|
 ||--------------------------|-------------------------|
 ||--------------------7-7-7-|-------7-7-7-6-6-6-------|
 ||o-9-9-9-9-9-9-9-9-9-------|-9-9-9-------------7-7-7-|
 ||--------------------------|-------------------------|

|
| Gtr II
 
 | |-3-| |-3-| |-3-| |-3-|

| E E E q E E E q E E E q E E E q
 
 ||--------------------------|-------------------------|
 ||o-------------------------|-------------------------|
 ||--------------------------|-------------------------|
 ||--------------------------|-------------------------|
 ||o-4-4-4-4-----4-4-4-4-----|-4-4-4-4-----4-4-4-4-----|
 ||--2-2-2-2-----2-2-2-2-----|-2-2-2-2-----2-2-2-2-----|

[C#5]  
 
 |-3-| |-3-| |-3-| |-3-| |-3-| |-3-| |-3-| |-3-|

E E E E E E E E E E E E E E E E E E E E E E E E 4x
 
 |-------------------------|--------------------------||
 |-------------------------|-------------------------o||
 |-------------------------|--------------------------||
 |-------------------------|--------------------------||
 |-------------------------|-------------7-7-7-7-7-7-o||
 |-9-9-9-9-9-9-9-9-9-9-9-9-|-9-9-9-9-9-9--------------||

|
 
 | |-3-| |-3-| |-3-| |-3-|

| E E E q E E E q E E E q E E E q 4x
 
 |-------------------------|--------------------------||
 |-------------------------|-------------------------o||
 |-------------------------|--------------------------||
 |-6-6-6-6-----6-6-6-6-----|-6-6-6-6-----6-6-6-6------||
 |-4-4-4-4-----4-4-4-4-----|-4-4-4-4-----4-4-4-4-----o||
 |-------------------------|--------------------------||

Interlude
N.C.
TP TP TP TP TP TP TP TP TP TP TP TP
H H Q Q Q Q H H Q Q Q Q 4x
 
 ||------------|--------------|-----------|---------------||
 ||o-----------|--------------|-----------|--------------o||
 ||------------|-----8--6-----|-----------|---------------||
 ||--6---------|-6---------9--|-8---------|-8--9--8-------||
 ||o------6----|--------------|------9----|----------9---o||
 ||------------|--------------|-----------|---------------||

|
| TP TP TP TP TP TP TP TP
| W H. Q W Q Q Q Q 4x
 
 ||------------|--------------|-----------|---------------||
 ||o-----------|--------------|-----------|--------------o||
 ||------------|--------------|-----------|---------------||
 ||------------|--------------|-----------|---------------||
 ||o-----------|-----------6--|-----------|--------------o||
 ||--4---------|-4------------|-2---------|-6--7--6--2----||

Out-Chorus
N.C.
TP TP TP TP TP
W H H W W
 
 ||-----------|-----------|----------|------|
 ||o----------|-----------|----------|------|
 ||-----------|-----------|----------|------|
 ||--9--------|-8----6----|-8--------|------|
 ||o----------|-----------|----------|-6----|
 ||-----------|-----------|----------|------|

|
| TP TP TP TP
| W W W W
 
 ||-----------|-----------|----------|------|
 ||o----------|-----------|----------|------|
 ||-----------|-----------|----------|------|
 ||-----------|-----------|----------|------|
 ||o-7--------|-7---------|-6--------|------|
 ||-----------|-----------|----------|-4----|

N.C.
TP TP TP TP TP TP
W H H H. Q W
 
 |----------|-----------|------------|-------||
 |----------|-----------|------------|------o||
 |----------|-----------|------------|-------||
 |-9--------|-8----6----|-8-------9--|-------||
 |----------|-----------|------------|-6----o||
 |----------|-----------|------------|-------||

|
| TP TP TP TP
| W W W W
 
 |----------|-----------|------------|-------||
 |----------|-----------|------------|------o||
 |----------|-----------|------------|-------||
 |----------|-----------|------------|-------||
 |-7--------|-7---------|-6----------|------o||
 |----------|-----------|------------|-4-----||

Outro
[E5]W H H [G#5]W W
 
 |----------|-------------|----------|------------|
 |----------|-------------|----------|------------|
 |----------|-------------|----------|------------|
 |----------|-------------|----------|------------|
 |-7--------|--6-----4----|-6--------|------------|
 |----------|-------------|----------|--4---------|

|
| W +W W +W
 
 |----------|-------------|----------|------------|
 |----------|-------------|----------|------------|
 |----------|-------------|----------|------------|
 |-9--------|-(9)---------|----------|------------|
 |-7--------|-(7)---------|-6--------|-(6)--------|
 |----------|-------------|-4--------|-(4)--------|

[E5]W H H [G#5]W Q. Q. Q
 
 |----------|-------------|----------|-----------------|
 |----------|-------------|----------|-----------------|
 |----------|-------------|----------|-----------------|
 |----------|-------------|----------|--6----8----9----|
 |-7--------|--6-----4----|-6--------|-----------------|
 |----------|-------------|----------|-----------------|

|
| W +W W +W
 
 |----------|-------------|----------|-----------------|
 |----------|-------------|----------|-----------------|
 |----------|-------------|----------|-----------------|
 |-9--------|-(9)---------|----------|-----------------|
 |-7--------|-(7)---------|-6--------|-(6)-------------|
 |----------|-------------|-4--------|-(4)-------------|

[E5]W H H [G#5]W W
 
 |----------|-------------|----------|------------|
 |----------|-------------|----------|------------|
 |----------|-------------|----------|------------|
 |----------|-------------|----------|------------|
 |-7--------|--6-----4----|-6--------|------------|
 |----------|-------------|----------|--4---------|

|
| W +W W +W
 
 |----------|-------------|----------|------------|
 |----------|-------------|----------|------------|
 |----------|-------------|----------|------------|
 |-9--------|-(9)---------|----------|------------|
 |-7--------|-(7)---------|-6--------|-(6)--------|
 |----------|-------------|-4--------|-(4)--------|

[E5]W [D#5]H [C#5]H [G#5]W +W
 
 |----------|-----------|----------|--------*|
 |----------|-----------|----------|--------*|
 |----------|-----------|----------|--------*|
 |-9--------|-8----6----|----------|--------*|
 |-7--------|-6----4----|-6--------|-(6)----*|
 |----------|-----------|-4--------|-(4)----*|

|
| W H H W +W
 
 |----------|-----------|----------|--------*|
 |----------|-----------|----------|--------*|
 |----------|-----------|----------|--------*|
 |-9--------|-8----6----|----------|--------*|
 |-7--------|-6----4----|-6--------|-(6)----*|
 |----------|-----------|-4--------|-(4)----*|

Duration Legend
 
 ---------------
 W - whole; H - half; Q - quarter; E - 8th; S - 16th; T - 32nd; X - 64th; a - acciaccatura

+ - note tied to previous; . - note dotted; .. - note double dotted
Uncapitalized letters represent notes that are staccato (1/2 duration)
Irregular groupings are notated above the duration line
Duration letters will always appear directly above the note/fret number it represents the
duration for. Duration letters with no fret number below them represent rests. Multi-
bar rests are notated in the form Wxn, where n is the number of bars to rest for. Low
melody durations appear below the staff
Tablature Legend
 
 ----------------

h - hammer-on
p - pull-off
b - bend
pb - pre-bend
r - bend release (if no number after the r, then release immediately)
/\ - slide into or out of (from/to "nowhere")
s - legato slide
S - shift slide
- natural harmonic
(n) - artificial harmonic
n(n) - tapped harmonic
~ - vibrato
tr - trill
T - tap
TP - trem. picking
PM - palm muting
\n/ - tremolo bar dip; n = amount to dip
\n - tremolo bar down
n/ - tremolo bar up
/n\ - tremolo bar inverted dip
= - hold bend; also acts as connecting device for hammers/pulls
- volume swell (louder/softer)
x - on rhythm slash represents muted slash
o - on rhythm slash represents single note slash
Misc Legend
 
 -----------

| - bar
|| - double bar
||o - repeat start
o|| - repeat end
*| - double bar (ending)
: - bar (freetime)
$ - Segno
& - Coda
Tempo markers - = BPM(8/16=s8/s16), where s8 = swing 8ths, s16 = swing 16ths

Important: The song above is NOT stored on the Chordie server. The original song is hosted at www.guitaretab.com. Chordie works as a search engine and provides on-the-fly formatting. Chordie does not index songs against artists'/composers' will. To remove this song please click here.

Text color:
Chord color:
Chord grids: 
Font size:    
Page size: 

C#5 D#5 E E5 F#5 G#5
Rate #2 of 2 versions

Login - add to songbook

SHARE PAGE  




You need to log in to post comments