Guitar Tabs, Chords and Lyrics
Server problems seems to be fixed. Chordie has been experiencing problems with songs disappearing. These issues now seems to be fixed, but still verifying the fix. If you find anything strange, please email admin@chordie.com.


Don't Tell Me That It's Over  Amy Macdonald

Amy MacDonald - Don't Tell Me That It's Over 145Bpm
Intro:
And I [Dm]wanna [Dm]see what it's [F]all [Am]about
|Dm |Dm |C |F |
|Dm |Bb |Am |F |
Verse 1:
[Dm]Tell me why this world is a [Dm]mess
I [C]thought you always tried your [F]best
[Dm]Tell me what I'm ought to [Bb]do
[Am]Maybe you should do it [F]too
[Dm]Tell me why they're sleeping [Dm]alone
No [C]house nowhere to call a [F]home
[Dm]Tell me what I'm meant to [Bb]see
[Am]Won't you stop preaching at [F]me
Pre-Chorus:
And [Dm]I wanna [Dm]see what it's [F]all [Am]about
And [Dm]I wanna [Bb]live, wanna [F]give something [Am]back
Chorus:
Don't tell me that it's [Dm]over[Dm]
It's only [F]just begun[Am]
Don't tell me that it's [Dm]over[Bb]
Or that this [F]song is sun[Am]g, the song is sung
Instrumental Break: (Strings arranged for Guitar)
|Dm |Dm |
 
 |-10-----------|------------------------------|
 |----------10--|-13--10------11-----------10--|
 |--------------|----------------------12------|
 |--------------|------------------------------|
 |--------------|------------------------------|
 |--------------|------------------------------|

|C |F |
 
 |--------------|------------------|
 |--------------|------------------|
 |-12-------12--|-10----9------7---|
 |--------------|------------------|
 |--------------|------------------|
 |--------------|------------------|

|Dm |Bb |
 
 |----------------15--|------13-------18--17--|
 |-17----15-----------|-----------------------|
 |--------------------|-----------------------|
 |--------------------|-----------------------|
 |--------------------|-----------------------|
 |--------------------|-----------------------|

|Am |F |
 
 |-15----12-----------|-----------------------|
 |----------------13--|-----------------------|
 |--------------------|------14---------------|
 |--------------------|-----------------------|
 |--------------------|-----------------------|
 |--------------------|-----------------------|

Verse 2:
All the money in the world
Would never slit all the wrongs to right
All the fire in the world
Would never set my heart alive
I dream of a day when it's all gone away
And the sun is shining bright
I dream of a day when it's all gone away
But dreams are for night
Pre-Chorus:
And I wanna see what it's all about
And I wanna live, wanna give something back
Chorus:
Don't tell me that it's over
It's only just begun
Don't tell me that it's over
Or that this song is sung, the song is sung
Instrumental Break 2:
|Dm |Bb |F |Am |
Interlude:
Don't tell me that it's [Dm]over please I'm [Dm]on my knees I'm [F]begging you to [Am]stop
It's [Dm]over please I'm [Dm]on my knees I'm [F]begging you to [Am]stop
Pre-Chorus:
And I wanna see what it's all about
And I wanna live, wanna give something back
Out-Chorus:
Don't tell me that it's over
It's only just begun
Don't tell me that it's over
Or that this song is sung the song is sung Dm~~

Important: The song above is NOT stored on the Chordie server. The original song is hosted at www.guitaretab.com. Chordie works as a search engine and provides on-the-fly formatting. Chordie does not index songs against artists'/composers' will. To remove this song please click here.

Text color:
Chord color:
Chord grids: 
Font size:    
Page size: 

Am Bb C Dm F
Rate #1 of 9 versions

Login - add to songbook

SHARE PAGE  



You need to log in to post comments