Guitar Tabs, Chords and Lyrics
Server problems seems to be fixed. Chordie has been experiencing problems with songs disappearing. These issues now seems to be fixed, but still verifying the fix. If you find anything strange, please email admin@chordie.com.


The Furthest Star  Amy Macdonald

The furthest star - Amy MacDonald
Album: Life in a beautiful light
Capo on 2th
Intro:
[C]  
 
 E|---------------------------3---3---|
 B|---1---1---1---1---3---3-----------|
 G|-----0---0---0---0---0---0---0---0-| x2
 D|-----------------------------------|
 A|---3-------------------------------|
 E|-----------------------------------|

Theme (pick during the verses):
[C] [Am]  
 
 E|---------------------------3---3-----------------------------0---0---|
 B|---1---1---1---1---3---3-------------1---1---1---1---3---3-----------|
 G|-----0---0---0---0---0---0---0---0-----2---2---2---2---2---2---2---2-|
 D|---------------------------------------------------------------------|
 A|---3---------------------------------0-------------------------------|
 E|---------------------------------------------------------------------|

[Em] [F]  
 
 E|-------------------0---0-----------------------------1---1-----------|
 B|---0---0---0---0-----------0---0-----1---1---1---1-----------1---1---|
 G|-----0---0---0---0---0---0---0---0-----2---2---2---2---2---2---2---2-|
 D|---------------------------------------------------------------------|
 A|---------------------------------------------------------------------|
 E|---0---------------------------------1-------------------------------|

Verse 1:
The[C] furthest star in the sky
Well t[Am]hat's the one that passed me by
I t[Em]ried to wish upon that star
It d[F]idn't get me very far
It f[C]ell on empty ears
It f[Am]ell on empty hearts
And my d[Em]reams, they fell a[F]part
I'm always [Em]wishing I was someone else[F]
I'm always [Em]hoping I can sell myself[F]
Chorus:
But I'[C]ll be free for what I bel[Am]ieve
And I won't s[Em]ell my soul just to ach[F]ieve my goal
And I'[C]ve been holding back the t[Am]ears, dreaming all these y[Em]ears
And I s[F]ing from the heart if you listen to me
[Em]Everything I do is what [G]I beli[C]eve
Verse 2:
The l[C]ights went out across the world
And your h[Am]ouse of cards came tumbling down
Cause [Em]nothing stays and noting sticks
When you're r[F]olling with the lunatics
But m[C]y star in the darkest sky
T[Am]winkles and watches while the other stars die
U[Em]pon your empty ears and empty h[F]earts
I'm always [Em]wishing I was someone else[F]
But I've given up the g[Em]host, I will never sell myself[F]
Chorus:
But I'[C]ll be free for what I bel[Am]ieve
And I won't s[Em]ell my soul just to ach[F]ieve my goal
And I'[C]ve been holding back the t[Am]ears, dreaming all these y[Em]ears
And I s[F]ing from the heart if you listen to me
[Em]Everything I do is what [G]I beli[C]eve
Verse 3:
The f[C]urthest star in the sky
Well t[Am]hat's the one that passed me by
I t[Em]ried to wish upon that star
It d[F]idn't get me very far
Outro:
[C] [Am]  
 
 E|------------------------------------------0---0-------------0---0-----|
 B|---1---1-----1---1-----1-----1---1------1-----------------1-----------|
 G|-----0---0-----0-----0---0-----0------2-----------2-----2-----------2-|
 D|----------------------------------------------------------------------|
 A|---3---------------3----------------0-----------------0---------------|
 E|----------------------------------------------------------------------|

[Em] [F]  
 
 E|---------0---0-----------0---0-----------1---1-----|
 B|-------0---------0-----0---------0-----1---------1-|
 G|-----0---------0-----0---------0-----2---------2---|
 D|---------------------------------------------------|
 A|---------------------------------------------------|
 E|---0---------------0---------------1---------------|

[G] [C]  
 
 E|--------------------0-|
 B|-------0-------0----1-|
 G|-----0---0---0---0--0-|
 D|--------------------2-|
 A|-----------2--------3-|
 E|---3----------------X-|

The tabs of Theme and Outro aren't 100% the ones that are originally played, but I liked
it that way. You may change it, if you want. :)
by Mary

Important: The song above is NOT stored on the Chordie server. The original song is hosted at www.guitaretab.com. Chordie works as a search engine and provides on-the-fly formatting. Chordie does not index songs against artists'/composers' will. To remove this song please click here.

Text color:
Chord color:
Chord grids: 
Font size:    
Page size: 

Am C Em F G
Rate #2 of 4 versions

Login - add to songbook

SHARE PAGE  



You need to log in to post comments