Guitar Tabs, Chords and Lyrics
Major upgrade!! After one year development the new version of Chordie is now online! Please give feedback.


A Day Late  Anberlin

Tabbed by Alessandro Di Dio (Napoli, Italy)
Chords used:
B C#m A E or E F#
 
 e|--0--| e|--0--| e|--0--| e|--0--| e|--0--| e|-----|
 B|--0--| B|--5--| B|--0--| B|--0--| B|--0--| B|-----|
 G|--4--| G|--6--| G|--2--| G|--9--| G|--1--| G|-11--|
 D|--4--| D|--6--| D|--2--| D|--9--| D|--2--| D|-11--|
 A|--2--| A|--4--| A|--0--| A|--7--| A|--2--| A|--9--|
 E|-----| E|-----| E|-----| E|-----| E|--0--| E|-----|

/=slide-up
\=slide-down
X=left-hand-muted
b=bend-up
r=release bend
h-hammer-on
INTRO: (left-hand-muted at the start)
So let me get this [B]straight
[C#m]Say now you loved me all al[A]ong
[(A)]What made you hesi[B]tate
[C#m]to tell me with words what you re[A]ally feel?
I can see it in your eyes
you mean all of what you say
I remember so long ago, see I felt that same way
 
 E|---------0---------0---------0---0-------|
 B|-----------------------------------0-----|
 G|-----4---------6---------2-----------2---|
 D|-------4---------6---------2-------------| 2times
 A|---2---------4---------0-----------------|
 E|-----------------------------------------|

[B]Now we both have se[C#m]parate lives and lo[A]vers (and lovers)
[B]Insignificant[C#m]ly enough
A (strum once and let ring)
we both have significant others
Only time will tell
Time will turn and tell
 
 E|--0-0-0-0------0-0-0-0------0-0-0--|
 B|--0-0-0-0------0-0-0-0------0-0-0--|
 G|--4-4-4-2-let--4-4-4-2-let--4-4-4--|
 D|--4-4-4-2-ring-4-4-4-2-ring-4-4-4--|
 A|--2-2-2-0------2-2-2-0------2-2-2--|
 E|-----------------------------------|

[E]We are who we were when
[B]Could have been lovers but at least you're still my d[A]ay late friend
[C#m]we are [B]who, [C#m]we are [B]who we were w[E]hen
[(E)]Who knew what we know now
[B]Could have been more but at least you're still my d[A]ay late friend
[C#m]We are [B]who, [C#m]we are [B]who we were [C#m]when
[(C#m)]But thoughts they change
and [B]times they rearrange
I don't know who you a[A]re anymore
 
 E|--0-0-0-0---0--------------|
 B|--0-0-0-0-0---0--4b-r------|
 G|--2-2-2-2-------------6-4--|
 D|--2-2-2-2------------------|
 A|--0-0-0-0------------------|
 E|---------------------------|

[C#m]Loves come and go and t[B]his I know
I'm not who you re[A]call anymore
 
 E|--0-0-0-0---0--------------|
 B|--0-0-0-0-0---0--4b-r------|
 G|--2-2-2-2-------------6-4--|
 D|--2-2-2-2------------------|
 A|--0-0-0-0------------------|
 E|---------------------------|

[B]And I [C#m]must confess
you're [A]so much more than I remember
[B]Can't help but enter[C#m]tain the thoughts
thoughts of us together
 
 E|--0-0-/0-0-/0-0-\0-0-/0-0--|
 B|--0-0-/0-0-/0-0-\0-0-/0-0--|
 G|--2-2-/4-4-/6-6-\4-4-/9-9--|
 D|--2-2-/4-4-/6-6-\4-4-/9-9--|
 A|--0-0-/2-2-/4-4-\2-2-/7-7--|
 E|---------------------------|

[E]We are who we were when
[B]Could have been lovers but at least you're still my d[A]ay late friend
[C#m]we are [B]who, [C#m]we are [B]who we were w[E]hen
[(E)]Who knew what we know now
[B]Could have been more but at least you're still my d[A]ay late friend
[C#m]We are [B]who, [C#m]we are [B]who we were when
INSTRUMENTAL:
 
 E|--00-\00-\00-/000000-/0-------------0------0000XX0--------|
 B|--00-\00-\00-/000000-/0*play-0*play-0*play-0000XX0--------|
 G|--66-\44-\22-/444444-/6-16X--1-16X--2-16X--4444XX4-444444-|
 D|--66-\44-\22-/444444-/6------2------2------4444XX4-444444-|
 A|--44-\22-\00-/222222-/4------2------0------2222XX2-222222-|
 E|-----------------------------0-----------------XX---------|

[C#m]So let me[/E] get[/F#] this [B]straight
All thes[/E]e ye[/F#]ars
and y[A]ou were no where to be found
 
 E|--0-0-0-0---0--------------|
 B|--0-0-0-0-0---0--4b-r------|
 G|--2-2-2-2-------------6-4--|
 D|--2-2-2-2------------------|
 A|--0-0-0-0------------------|
 E|---------------------------|

[C#m]And now you want me[/E] for[/F#] your [B]own
[B]But you're a day late
/E /F# A (strum once and let ring)
and my love, she's still renowned
GUITAR2:
 
 E|--000000000000-00-00-0000000000-222h4-00-00-0-0-----------|
 B|--555555555555/77/99\4444444444-000---00-00-0--0-4b-r-----|
 G|--------------------------------------22-22-2--------6-4--|
 D|----------------------------------------------------------|
 A|----------------------------------------------------------|
 E|----------------------------------------------------------|

GUITAR2:
 
 --000000000000-00-00-777777775544-2h4-0--|
 --555555555555/77/99-000000000000-0---0--|
 --------------------------------------2--|
 --------------------------------------2--|
 -----------------------------------------|
 -----------------------------------------|

CHORUS/OUTRO: 2X
[E]We are who we were when
[B]Could have been lovers but at least you're still my d[A]ay late friend
[C#m]we are [B]who, [C#m]we are [B]who we were w[E]hen
[(E)]Who knew what we know now
[B]Could have been more but at least you're still my d[A]ay late friend
C#m B C#m B E (2nd time strum once and let ring)
We are who, we are who we were when

Important: The song above is NOT stored on the Chordie server. The original song is hosted at www.guitaretab.com. Chordie works as a search engine and provides on-the-fly formatting. Chordie does not index songs against artists'/composers' will. To remove this song please click here.

Text color:
Chord color:
Chord grids: 
Font size:    
Page size: 

A B C#m E
Rate #1 of 11 versions

Jango Player

Login - add to songbook

SHARE PAGE  



You need to log in to post comments