Guitar Tabs, Chords and Lyrics
Major upgrade!! After one year development the new version of Chordie is now online! Please give feedback.


(The Symphony of) Blasé  Anberlin

 
 -------------------------------------------------------------------------------

(THE SYMPHONY OF) BLASÉ - Anberlin
 
 -------------------------------------------------------------------------------

Tabbed by: Dyrusion
Email:
Tuning: Eb, Ab, Db, Gb, Bb, eb
Chords:
[C5] [Am] [F]  
 
 e|-3--0----|
 B|-3--1--1-|
 G|-5--2--2-|
 D|-5--2--3-|
 A|-3--0--3-|
 E|-3--0----|

Intro
Guitar 1 (Bells)
 
 e|-7h8p7h8p7-------|
 B|-----------8-10--|
 G|-4h5p4h5p4-------|
 D|-----------5-7---|
 A|-----------------|
 E|-----------------|

Guitar 2
 
 e|-----------------|
 B|-----------------|
 G|-----------------|
 D|-------5-----5---|
 A|---3-------------|
 E|-3---3---3-3-----|

Verse
Guitar 1
 
 e|-3-----3--------3-----|
 B|---3-----3--------3---|
 G|-----5-----5---5----5-|
 D|-------------5--------|
 A|----------------------|
 E|----------------------|

Verse:
Are there no [C5]shadows where you are?
I see [Am]everything as day
Problems that you [F]try to hide away
Are pushing me[Am] aside (You're pushing me aside)
[C5]Could the winter calm come twice?
Because your [Am]heart seems to cold tonight
Thirst for substance [F]somehow isn't right
It's [Am]killing me inside (Killing you inside)
Killing me [C5]inside
Pre-Chorus:
I don't want to [Am]be where you are
I don't want to [F]be here even now
I don't want to [Am]be by your side
If something isn't [F]right
If something isn't [C5]right
Chorus:
[C5]This is our [Am]last goodnight
[F]Say what you will
Say all that you can
[Am]Words have no meaning
When I've [F]seen where you've [C5]been
This is our last goodnight
Say what you will
Say all that you can
This is our last goodbye
This is where love ends
Verse:
Are you so naive to right and wrong
How could you watch innocence forgone
Does what we've done ever really belong?
It wasted me away, I feel so wasted away
God if you can hear me out alright
Please take these feelings for her inside
My chest hurts when I breathe tonight
It's wasting me away, You're wasting me away
You're wasting me away
Pre-Chorus:
I don't wanna be where you are
I don't wanna be here even now
I don't wanna be by your side
If something isn't right
If something isn't right
Bridge:
Guitar 1
 
 e|-------3-------3-|
 B|-----------------|
 G|---5-------5-----|
 D|-5---5---5---5---|
 A|-----------------|
 E|-----------------|

[C5]This is our last
This is our last
Solo:
 
 e|-----------------|-----------------------|-------------------------3-|
 B|-----------------|-----------------------|-----------------------3---|
 G|-4h5p4-----------|-4h5p4-----------------|---------------2-5-2-5-----|
 D|-------5-7-----5-|-------5-7-----5-------|-------2-5-2-5-------------|
 A|-----------5-7---|-----------5-7---3/2\3-|-2-3-5---------------------|
 E|-----------------|-----------------------|---------------------------|
 e|-------------------------8-7----------------------------|
 B|-5b-3b---------------8-8-----10-8-----------------------|
 G|-------5b-4b-----7-9--------------9-9b-7-5-4h5p4--------|
 G|-------------7-9---------------------------------/7-5-5-|
 A|--------------------------------------------------------|
 E|--------------------------------------------------------|

Chorus:
This is our last goodnight
Say what you will
Say all that you can
Words have no meaning
When I've seen where you've been
This our last goodnight
Say what you will
Say all that you can
This is our goodbye
This is where love ends
Outro
 
 e|-------3-|
 B|-5p3-----|
 G|-----5---|
 D|---------|
 A|---------|
 E|---------|

| / slide up
| \ slide down
| h hammer-on
| p pull-off
| ~ vibrato
| + harmonic
| x Mute note
===============================================================================

Important: The song above is NOT stored on the Chordie server. The original song is hosted at www.guitaretab.com. Chordie works as a search engine and provides on-the-fly formatting. Chordie does not index songs against artists'/composers' will. To remove this song please click here.

Text color:
Chord color:
Chord grids: 
Font size:    
Page size: 

Am C5 F
Rate #2 of 3 versions

Login - add to songbook

SHARE PAGE  



You need to log in to post comments