Guitar Tabs, Chords and Lyrics
Major upgrade!! After one year development the new version of Chordie is now online! Please give feedback.


Nakagawa-san  Andy McKee

by Andy Mckee
Tuning: E B Eb Gb B Eb
This is one of my favorite songs my Andy Mckee, and I tabbed this mostly by ear, though
I used another tab for some help. I am pretty sure this tab is spot on, but if you have
any tips, feel free to comment. I did my best to break up the song into followable
parts, but listen to the song to get the tempo down. Also, a technique that Andy Mckee uses to
make this song beautiful is shaking the guitar, so try to do that when you get to
ringing notes. Good luck!
Order of play: ABBC ABBC DEDF ABBC DEDF G
[A]  
 
 ||--NH-------------0------------------------------0-----0-----|
 ||--12--------------------2----------0-----------0------0-----|
 ||-------NH--5--------0--------4--0-------------2-------------|
 ||--------7------------------0-----------------3-----------3--|
 ||-----------------------------------------4--4---------------|
 ||--------------4-----------------------4----4----------X-----|
 |-------------------0---------0-------------------|
 |--------0--------2-----5---------------NH--------|
 |--4-------------4-----------------5----12-----5--|
 |--3------------3-------3-------3-----------7-----|
 |--2-----------X----------------------------------|
 |-----2-----2-2------------0----------------------|
 |-----0------3-----7h8p7-------------------------|
 |------------------------7--------0--------------|
 |------------------------------4-----4-----------|
 |---------0-----0-----------------------5--3-----|
 |---------------------------------------------4--|
 |--4------------------------4--------------------|
 |--------------------0--------0-----------------------0----|
 |--------0-----2--------5------------------------------0---|
 |--4-----------4-----------------5----------------------0--|
 |--3-----------3--------3----------NH-PH-------------------|
 |--2--------------------------------7--9-------------------|
 |-----2-----2-----2--------0-------------0--0--0----0------|
 |-----0--------0-----0------------------|
 |--2--2p0---7--0--2---------------0-----|
 |--0--------9-----0------------4--------|
 |-----------8---------------3-----------|
 |-----------------------2/4-------------|
 |--2--X--9--9--X--2------------------X--|
 |-------0------------0--------0------------------|
 |--2--------------7--0-----2------------------0--|
 |--0--------------9--------0---------------4-----|
 |-----------------8---------------------3--------|
 |------------------------------------0-----------|
 |--2--2-----X--9--9--X--2--2-----4/6-------------|

[B]  
 
 |--------3-----------------------------3-----------------|
 |--2-----------0-----------------2--------0--------------|
 |--0--------0--------2h4---0----0---0-----------2h4---0--|
 |------------------------------3-------------------------|
 |-----------------0-----0-----0--------------0-----0-----|
 |--0--0----------------------0---------------------------|
 |----------7h8p7-----------------0------------------|
 |---------7-------7-----9--7---------0--------------|
 |--------X-----------7-------------4----------------|
 |-----8-8-------------------------------5--3--------|
 |--0------------------------------------------5--4--|
 |-----------------------------4---------------------|

[C]  
 
 |-----------------0-----------------|
 |-----------0---------0---2+-----2--|
 |----------------------0--0+-----0--|
 |-----0--1--------------------------|
 |--2-----------2--------------------|
 |-------------------------2+--2--2--|

D *
 
 |---------------------7-----7/8---3-----------------------|
 |--4h5--4----------0------------0----------0--------------|
 |---------5---------------------0-------4-----4-----------|
 |---------------7--------7-----------------------5--3--0--|
 |---------------------------------------------------------|
 |------------0------------------X----4--------------------|

********************
 
 |--------0-----3-------------------------------0--|
 |--5-----------5---3/2--0--0-------------0--------|
 |-----------0------------------------0h2----------|
 |--5-----------------------------1/3--------3-----|
 |-------------------------------------------------|
 |-----5----------X------------0-------------------|
 |-------------------7-----8/10--8-----------8-----|
 |-------0--------0--------------------------------|
 |-------------------------------------9h10--------|
 |--3/7--------7--------7--------------------------|
 |-------------------------------------------------|
 |----------0-----------------------9-----------X--|

E *
 
 |-----------3--------------3----------------------3-----------|
 |--10/9--0-----------0--------0-----0-------0--------0-----0--|
 |-----------------2-----2--------2-------4-----4--------4-----|
 |-------------------------------------------------------------|
 |-------------------------------------------------------------|
 |--------------2-----------------------2----------------------|

[F]  
 
 |--10/12/10--10--------------10--------------|
 |-------------------------7------7-----------|
 |----------------------7------------7--------|
 |-------------------8------------------8--7--|
 |----------------7------------------------7--|
 |--------------------------------------------|

Final time through D, play in place of asterisked section:
 
 |----------------0-----------------|
 |------------0-----0--------0------|
 |--------0h2----------2p0h2---2p0--|
 |----1/3-------3-------------------|
 |----------------------------------|
 |--0-------------------------------|

[G]  
 
 |---------------0----------|
 |-----------------------0--|
 |------------0-------------|
 |---------7----------7-----|
 |--7--7h9----------9-------|
 |--------------------------|
 |----0--------------0----------------0-------------|
 |-------------0----------------0--------------0----|
 |-0--------------0----------------0--------0-------|
 |----------7----------------7-----------7----------|
 |--------9----------------9------------------------|
 |----------------------0---------------------------|
 |----0--------------0----------------0-----------|
 |-------------0----------------0---------------0-|
 |-0--------------0----------------0--------------|
 |----------7----------------7-----------10-------|
 |--------9----------------9----------------------|
 |----------------------0--------------------0----|
 |-------0-------------|
 |----------------0----|
 |-0-----------------0-|
 |-------------5-------|
 |---------------------|
 |----0-----0----------|
 |-0-----------||
 |---5---------||
 |-----0-------||
 |-------5-----||
 |---------0---||
 |-----------0-||


Important: The song above is NOT stored on the Chordie server. The original song is hosted at www.guitaretab.com. Chordie works as a search engine and provides on-the-fly formatting. Chordie does not index songs against artists'/composers' will. To remove this song please click here.

Text color:
Chord color:
Chord grids: 
Font size:    
Page size: 

A B C F G
Rate #1 of 1 versions

Jango Player

Login - add to songbook

SHARE PAGE  




You need to log in to post comments