Guitar Tabs, Chords and Lyrics
Server problems seems to be fixed. Chordie has been experiencing problems with songs disappearing. These issues now seems to be fixed, but still verifying the fix. If you find anything strange, please email admin@chordie.com.


Alone  Angel Blake

Angel Blake - Alone
Chords as played originally in the song at 0:48
[A] [G] [F]  
 
 D|-------------------|
 A|--10----9----------|
 F|--9-----7----10----|
 A|-------------10----|
 G|-------------------|
 D|-------------------|

Intro:
 
 D|------0---------------0------------|
 A|-----------------------------------|
 F|----2---2---0-------2---2---0------|
 A|----------3-----3---------3-----3--|
 G|--0---------------0----------------|
 D|-----------------------------------|

All the time I wonder when it all could end
Did I try enought or did I just let go?
(0:29)
 
 D|-----------------------------------|
 A|-----------------------------------|
 F|-----------------------------------|
 A|------7-------3-----5-----5-----5--|
 G|----7---7---3-----5---5-----5------|
 D|--5-------1-----3-------3-----3----|

Alone
Unknown
Alone
I'll never know
(0:48)
[A] [G]Seeing tim[A]e just pa[G]ss I wo[A]nder wh[G]ere it we[A]nt[F]
[A] [G]Looking b[A]ack I [G]hope my t[A]ime was [G]wisely sp[A]ent[F]
Alone
Unknown
Alone
I'll never know
Chorus: (1:25)
[A]I walk b[F]eside you in l[D]ife [G]of life I'm
[A]deprived, I'm b[F]lind to the w[D]orld
I want to [A]breathe th[F]e air that you br[D]eathe
[G]Hear rain answering [A]me, I [F]fear I have l[D]ost
SOLO (1:46)
(2:04)
[A] Sp[G]ending y[A]ears in d[G]ark I w[A]onder h[G]ow it f[A]eels[F]
[A] To[G] feel the r[A]ays of s[G]un caress[A] my smi[G]le aga[A]in[F]
Alone
Unknown
Alone
I'll never know
Chorus (2:43) 2x
(3:41)
[E] I w[G]on't let the wo[A]rds of divine drown me
[E] I wa[G]nt it to gro[B]w
[E] A se[G]emingly t[A]imeless caress from
[E]death h[G]unting my s[B]oul
[D]I'm dying tied in lies
Chorus (4:05) 2X
Tab by Čufko

Important: The song above is NOT stored on the Chordie server. The original song is hosted at www.guitaretab.com. Chordie works as a search engine and provides on-the-fly formatting. Chordie does not index songs against artists'/composers' will. To remove this song please click here.

Text color:
Chord color:
Chord grids: 
Font size:    
Page size: 

A B D E F G
Rate #1 of 2 versions

Jango Player

Login - add to songbook

SHARE PAGE  




You need to log in to post comments