Guitar Tabs, Chords and Lyrics
Server problems seems to be fixed. Chordie has been experiencing problems with songs disappearing. These issues now seems to be fixed, but still verifying the fix. If you find anything strange, please email admin@chordie.com.


No Pain for the Dead  Angra

 
 ---------------------------------------------------------------------------

NO PAIN FOR THE DEAD - Angra
 
 ---------------------------------------------------------------------------

Tabbed by: Neuronengesang
Email: volrak@gmail.com
Tuning: Half-Step Down
Chords used in Intro: Chords used in Verse:
F#m Bm7 Asus4 A C#7 F#m E D A/C# D(bar) C#sus4 C#
 
 --2-----2-----0-----0-----4-- --2-----0-----2-----0-----5-----4-----4--
 --2-----3-----3-----2-----6-- --2-----0-----3-----2-----7-----7-----6--
 --2-----2-----2-----2-----4-- --2-----1-----2-----2-----7-----6-----6--
 --4-----0-----2-----2-----6-- --4-----2-----0-----2-----7-----6-----6--
 --4-----2-----0-----0-----4-- --4-----2-----x-----4-----5-----4-----4--
 --2-----x-----x-----x-----x-- --2-----0-----x-----x-----x-----x-----x--

Chords used in Pre-chorus A: Chords used in Chorus:
A C#m F#m D(bar) D E E D C#m Bm A F#m
 
 --5-----4-----2-----5-----2-----0-- --0-----2-----4-----2-----0-----2--
 --5-----5-----2-----7-----3-----0-- --0-----3-----5-----3-----2-----2--
 --6-----6-----2-----7-----2-----1-- --1-----2-----6-----4-----2-----2--
 --7-----6-----4-----7-----0-----2-- --2-----0-----6-----4-----2-----4--
 --7-----4-----4-----5-----x-----2-- --2-----x-----4-----2-----0-----4--
 --5-----x-----2-----x-----x-----0-- --0-----x-----x-----x-----x-----2--

Chords used in Pre-chorus B:
[E] [G#m] [C#m] [A] [D] [F#m]  
 
 --0-----4-----4-----0-----2-----2--
 --0-----4-----5-----2-----3-----2--
 --1-----4-----6-----2-----2-----2--
 --2-----6-----6-----2-----0-----4--
 --2-----6-----4-----0-----x-----4--
 --0-----4-----x-----x-----x-----2--
 ---------------------------------------------------------------------------

Intro:
[F#m] [Bm7] [Asus4] [A] 
[F#m] [Bm7] [C#7]  
Verse 1:
[F#m]Standing by his coffin, [E]thoughts have gone astray
[(D)] [(E)] [F#m]Life is just a burden, [E]carry yours away[(A/C#)]
D(bar)
Wipe the tears that fall
[C#sus4]Moments re[C#]called in the
Verse 2:
[F#m]Child's [E]eyes
[(D)]Watch [(E)]the [F#m]world go [E]by[(A/C#)]
D(bar)
Flying through the stars
[C#sus4]Won't hide the [C#]scars
Pre-chorus A:
[A]Always [C#m]mourning cries
F#m D(bar)
Wasted in this world
[A]I'd never [C#m]realized
[F#m]Smiles in the falling [D]rain
[E]Wash the tears a[F#m]way
Chorus:
[E] Face the angel of [D]death[E]
[C#m] Soon your time will be [Bm]over
[A] Your sal[E]vation's a[F#m]head
That's why I [E]said
There is no [D]pain[E] for the [F#m]dead
[E]  
Verse 3:
[F#m]Dying [E]now
Hour[F#m]glass counts [E]down[(A/C#)]
D(bar)
Leaving this world
[C#sus4]Your desti[C#]nation is
Pre-chorus A:
[A]Hiding [C#m]mourning time
F#m D(bar)
Face up to the world
A[A]nother day [C#m]passes by
[F#m]Living our minutes in [D]vain
[E]Wipe the tears a[F#m]way...
Instrumental:
[(F#m)] [C#m] [G#m] [D#m] [Ddim]  
 
 (2) . . . --4-------------4-------------6------5--
 (2) --5-------------6-------------7------7--
 (2) --6-------------6-------------8------8--
 (4) --6-------------4-------------8------7--
 (4) --4-------------4-------------6------x--
 (2) . . . --x-------------4-------------x------x--

(away...)
[C#m] [Bsus4] [B] [B7] [G#sus4] [G#7] 
 
 --4-------------2-------------2------2------4------4--
 --5-------------5-------------4------4------4------4--
 --6-------------4-------------4------2------6------5--
 --6-------------4-------------4------4------6------4--
 --4-------------2-------------2------2------6------6--
 --x-------------x-------------x------x------4------4--

[C#m] [E/B] [Esus4/A] [G#7] [Em/B] [A1-4-7] [C#m/G#] [G#7/F#] 
 
 --4------4------4------4------3------2------4------4--
 --5------5------5------4------5------5------5------4--
 --6------4------4------5------4------4------6------5--
 --6------2------2------4------5------4------6------4--
 --4------2------0------6------x------x------x------x--
 --x------x------x------4------x------x------x------x--

Bridge 1 (vocal 2):
[E] [G#m/D#] [C#m] [G#m/B] [C#m] [E/B] [A] [C/G] [G5]  
 
 --4------4---------4------4--------4-----0-----0-----0--3-
 --5------4---------5------4--------5-----0-----2-----1--3-
 --4------4---------6------4--------6-----1-----2-----0--0-
 --2------6---------6------6--------6-----2-----2-----2--0-
 --x------6---------4------6--------4-----2-----0-----3--x-
 --x------x---------x------7--------x-----x-----x-----3--3-

/Triumph for the mothers of the war/
[G] [Bm/F#] [Em] [G] [F#m] [G#m]  
 
 --3-----2---------0------3------2--------------4----------
 --0-----3---------0------0------2--------------4----------
 --0-----4---------0------0------2--------------4----------
 --0-----4---------2------0------4--------------6----------
 --x-----2---------2------2------4--------------6----------
 --3-----2---------0------3------2--------------4----------

/Fallen for the causes of the others.../
[C#m] [D#m] [D#dim] [C#sus4] [C#7]  
 
 --4--------------6--------------8--------------4-----4----
 --5--------------7--------------x--------------7-----6----
 --6--------------8--------------8--------------6-----4----
 --6--------------8--------------7--------------6-----6----
 --4--------------6--------------6--------------4-----4----
 --x--------------x--------------x--------------x-----x----

/Worth the sacrifice?/ /Heroes are dying now/
[C#m] [Bsus4] [B] 
 
 --4---------------2-------2--
 --5---------------5-------4--
 --6---------------4-------4--
 --6---------------4-------4--
 --4---------------2-------2--
 --x---------------x-------x--

/Hearing their mothers cry/
[C#7] [F#] [F#7] [B7] 
 
 --4-----------2---------2------------------2-------
 --6-----------2---------2------------------4-------
 --4-----------3---------3------------------2-------
 --6-----------4---------2------------------4-------
 --4-----------4---------4------------------2-------
 --x-----------2---------2------------------x-------

/Heaven is a metaphor; free your mind and spirit/
Pre-chorus B:
[E]Mother Earth, [G#m]do your part
[C#m] [A]  
 
 Take my soul, oh no! .--------------------------

E G#m C#m |(vocal 2):
Water, wind and fi-ire... |
D E F#m | F#m
Will take our spirits away | /Victims of sacri-
|
Chorus: (extended) |
E D E | E D E
Face the angel of death | fice/ /Struggling to sur-
C#m Bm | C#m Bm
Soon your time will be o---ver | vive/ /Revolution
A E F#m | A E F#
Your salvation's ahead | re---mains/
E | E
It's not so sad | /It's not so sad/
D E F#m | D E F#
There is no pain for the dead | /Victims of sacri-
E D E | E D E
There'll be no rest til you're dead | fice/ /Struggling to sur-
C#m F#m | C#m F#
Liberation of soul | vive/
E | E
It's not so sad | /It's not so sad/
D E F#m |
There is no pain for the dead |
[E] [F#m]Oh-----[E]hhh
[D] [C#sus4] No [C#]pain for the [F#m]dead
[C#7] [F#m]  
===========================================================================

Important: The song above is NOT stored on the Chordie server. The original song is hosted at www.guitaretab.com. Chordie works as a search engine and provides on-the-fly formatting. Chordie does not index songs against artists'/composers' will. To remove this song please click here.

Text color:
Chord color:
Chord grids: 
Font size:    
Page size: 

A Asus4 B B7 Bm Bm/F# Bm7 Bsus4 C# C#7 C#m C#m/G# C/G D D#dim D#m Ddim E E/B Em Em/B Esus4/A F# F#7 F#m G G#7 G#7/F# G#m G#m/B G#m/D# G#sus4 G5
Rate #1 of 3 versions

Login - add to songbook

SHARE PAGE  




You need to log in to post comments