Guitar Tabs, Chords and Lyrics
Major upgrade!! After one year development the new version of Chordie is now online! Please give feedback.


Shy  Ani DiFranco

by Ani DiFranco
Album: Not A Pretty Girl
Tabbed by Agnete Otzen (agneteo(a)mail.dk)
This is a version of the song in standard tuning. It doesn't quite have the Oomph of the
but it saves you having to tune your guitar back and forth.
The chords do not reflect the capo.
^ = up-stroke
Capo on 2nd
Main riff (intro/verse):
 
 e|--------------------------------|--------------------------------|
 B|--------------------------------|--------------------------------|
 G|--------------------------------|--------------------------------|
 D|-------(4)----4x--x-2---2---0---|--------0-----0x--x-------------|
 A|-------(2)----2x--x-3---3---2---|--------2-----2x--x-----2-------|
 E|0---0---------0x--x-------------|3---3---------3x--x-2-------2---|

| ^ ^ | ^ ^ |
|1 2 3 4 |1 2 3 4 |
Chorus:
[Esus4] [G] [D5] [C5]  
 
 e|0-------0-----0x--x-3---3-----3x|--------------------------------|
 B|0-------0-----0x--x-3---3-----3x|--------------------------------|
 G|2-------2-----2x--x-4---4-----4x|--x-7---7-----7x--x-5---5-----5x|
 D|2-------2-----2x--x-5---5-----5x|--x-7---7-----7x--x-5---5-----5x|
 A|2-------2-----2x--x-5---5-----5x|--x-5---5-----5x--x-3---3-----3x|
 E|0-------0-----0x--x-3---3-----3x|--------------------------------|

| ^ ^ ^ | ^ ^ ^ ^ |
|1 2 3 4 |1 2 3 4 |
[Esus4] [G] [D5] [C5]  
 
 |--x-0---0-----0x--x-3---3-----3x|--------------------------------|
 |--x-0---0-----0x--x-3---3-----3x|--------------------------------|
 |--x-2---2-----2x--x-4---4-----4x|--x-7---7-----7x--x-5---5-----5x|
 |--x-2---2-----2x--x-5---5-----5x|--x-7---7-----7x--x-5---5-----5x| x2
 |--x-2---2-----2x--x-5---5-----5x|--x-5---5-----5x--x-3---3-----3x|
 |--x-0---0-----0x--x-3---3-----3x|--------------------------------|

| ^ ^ ^ ^ | ^ ^ ^ ^ |
|1 2 3 4 |1 2 3 4 |
End of chorus:
[C9]  
 
 e|x-------3~----3-x-------3~----3-|x-------3~----3-x-------3~----3-|
 B|x-------3~----3-x-------3~----3-|x-------3~----3-x-------3~----3-|
 G|x-------5~----5-x-------5~----5-|x-------5~----5-x-------5~----5-|
 D|x-------5~----5-x-------5~----5-|x-------5~----5-x-------5~----5-|
 A|x-------3~----3-x-------3~----3-|x-------3~----3-x-------3~----3-|
 E|--------------------------------|--------------------------------|

| ^ ^ | ^ ^ |
|1 2 3 4 |1 2 3 4 |

Important: The song above is NOT stored on the Chordie server. The original song is hosted at www.guitaretab.com. Chordie works as a search engine and provides on-the-fly formatting. Chordie does not index songs against artists'/composers' will. To remove this song please click here.

Text color:
Chord color:
Chord grids: 
Font size:    
Page size: 

C5 C9 D5 Esus4 G
Rate #1 of 4 versions

Jango Player

Login - add to songbook

SHARE PAGE  




You need to log in to post comments