Guitar Tabs, Chords and Lyrics
Server problems seems to be fixed. Chordie has been experiencing problems with songs disappearing. These issues now seems to be fixed, but still verifying the fix. If you find anything strange, please email admin@chordie.com.


Alison Hell  Annihilator

As recorded by Annihilator
(From the 1989 Album ALICE IN HELL)
Transcribed by Laurent Fleury
Words by Jeff Waters & John Bates Music by Jeff Waters
Gtr I (E A D G B E) - 'Untitled'
Gtr II (E A D G B E) - 'Untitled'
Gtr III (E A D G B E) - 'Untitled'
Gtr IV (E A D G B E) - 'Untitled'
Gtr V (E A D G B E) - 'Untitled'
Intro
Q.=140
12/8
Gtr I
W W W W
 
 |---------------|---------------|---------------|--------------------------|
 |---------------|---------------|---------------|--------------------------|
 |---------------|---------------|---------------|--------------------------|
 |---------------|---------------|---------------|--------------------------|
 |---------------|---------------|---------------|--------------------------|
 |---------------|---------------|---------------|--------------------------|

|
| Gtr II
| W H W H W H H. Q. Q S S
 
 |---------------|---------------|---------------|--------------------------|
 |---------------|---------------|---------------|---------------------13---|
 |---------------|---------------|---------------|-----------------14-(14)--|
 |---------------|---------------|---------------|--------------------------|
 |---------------|---------------|---------------|--------------------------|
 |---------------|---------------|---------------|--------------------------|

W W
 
 |------------------|---------------------------------|
 |------------------|---------------------------------|
 |------------------|---------------------------------|
 |------------------|---------------------------------|
 |------------------|---------------------------------|
 |------------------|---------------------------------|

|
| W. +H. +Q. +Q S S
 
 |--11--------------|-(11)------(11)----(11)----------|
 |-(13)-------------|-(13)------(13)----(13)------13--|
 |-(14)-------------|-(14)------(14)----(14)--14-(14)-|
 |------------------|---------------------------------|
 |------------------|---------------------------------|
 |------------------|---------------------------------|

W W
 
 |-----------------|-----------------|
 |-----------------|-----------------|
 |-----------------|-----------------|
 |-----------------|-----------------|
 |-----------------|-----------------|
 |-----------------|-----------------|

|
| W. +H. H.
 
 |--11-------------|-(11)------------|
 |-(13)------------|-(13)------------|
 |-(14)------------|-(14)------------|
 |-----------------|-----------------|
 |-----------------|-----------------|
 |-----------------|-----------------|

W W
 
 |-------------------|---------------------|
 |-------------------|---------------------|
 |-------------------|---------------------|
 |-------------------|---------------------|
 |-------------------|---------------------|
 |-------------------|---------------------|

|
| Gtr III
| H. +H. Q. +E Q H.
 
 |-------------------|---------------------|
 |-------------------|---------------------|
 |-2--------(2)------|-8----(8)------------|
 |-2--------(2)------|-8----(8)------------|
 |-0--------(0)------|-6----(6)------------|
 |-------------------|---------------------|

W W
 
 |------------------|------------------------|
 |------------------|------------------------|
 |------------------|------------------------|
 |------------------|------------------------|
 |------------------|------------------------|
 |------------------|------------------------|

|
| H. +H. Q. +E Q Q. Q.
 
 |------------------|------------------------|
 |------------------|------------------------|
 |-2-------(2)------|-8----(8)---------8\----|
 |-2-------(2)------|-8----(8)---------8-----|
 |-0-------(0)------|-6----(6)---------6\----|
 |------------------|------------------------|

Gtr III
[E] [E] [E] [E] [E] [E] [E] [E] [E] [E] [E] [E] [E] [E] [E] [E] [E] [E] [E] [E] [E] [E] [E] [E]  
 
 ||--------------------------|--------------------------||
 ||o-------------------------|-------------------------o||
 ||--------------------------|--------------------------||
 ||--------------------------|--------------------------||
 ||o-------7-----------7-----|-------6-----------6-----o||
 ||--5-7-8---8-7-5-7-8---8-7-|-5-7-8---8-7-5-7-8---8-7--||

|
| Gtr IV
| E E E E E E E E E E E E E E E E E E E E E E E E
 
 ||--------------------------|--------------------------||
 ||o-------------------------|-------------------------o||
 ||--------------------------|--------------------------||
 ||--------------------------|--------------------------||
 ||o-------7-----------7-----|-------6-----------6-----o||
 ||--5-7-8---8-7-5-7-8---8-7-|-5-7-8---8-7-5-7-8---8-7--||

[E] [E] [E] [E] [E] [E] [E] [E] [E] [E] [E] [E] [E] [E] [E] [E] [E] [E] [E] [E] [E] [E] [E] [E]  
 
 |-------------------------------------|----------------------------------------|
 |-------------------------------------|----------------------------------------|
 |-----------9-----------------9-------|-----------8-----------------8----------|
 |--7--9-10----10--9--7--9-10----10--9-|--7--9-10----10--9--7--9-10----10--9----|
 |-------------------------------------|----------------------------------------|
 |-------------------------------------|----------------------------------------|

|
| E E E E E E E E E E E E E E E E E E E E E E E E
 
 |-------------------------------------|----------------------------------------|
 |-------------------------------------|----------------------------------------|
 |----------12----------------12-------|----------11----------------11----------|
 |-10-12-13----13-12-10-12-13----13-12-|-10-12-13----13-12-10-12-13----13-12----|
 |-------------------------------------|----------------------------------------|
 |-------------------------------------|----------------------------------------|

E E E E E E E E E E E E E E E E E E +E E E Q.
 
 |-------------------------------------|------------------------------------|
 |-------------------------------------|------------------------------------|
 |-----------9-----------------9-------|-----------8--8--8-(8)-\20-20-20\---|
 |--7--9-10----10--9--7--9-10----10--9-|--7--9-10---------------------------|
 |-------------------------------------|------------------------------------|
 |-------------------------------------|------------------------------------|

|
| E E E E E E E E E E E E E E E E E E E E E Q.
 
 |-------------------------------------|------------------------14-14-14\---|
 |-------------------------------------|------------------------------------|
 |----------12----------------12-------|----------11-11-11-11---------------|
 |-10-12-13----13-12-10-12-13----13-12-|-10-12-13---------------------------|
 |-------------------------------------|------------------------------------|
 |-------------------------------------|------------------------------------|

[E] [E] [E] [E] [E] [E] [E] [E] [E] [E] [E] [E] [E] [E] [E] [E] [E] [E] [E] [E] [E] [E] [E] [E]  
 
 ||------------------------------|--------------------------------|
 ||o-----------------------------|--------------------------------|
 ||---------9-------------9------|--------8-------------8---------|
 ||--7-9-10---10-9-7-9-10---10-9-|-7-9-10---10-9-7-9-10---10-9----|
 ||o-----------------------------|--------------------------------|
 ||------------------------------|--------------------------------|

|
| E E E E E E E E E E E E E E E E E E E E E E E E
 
 ||------------------------------|--------------------------------|
 ||o-----------------------------|--------------------------------|
 ||---------9-------------9------|--------8-------------8---------|
 ||--7-9-10---10-9-7-9-10---10-9-|-7-9-10---10-9-7-9-10---10-9----|
 ||o-----------------------------|--------------------------------|
 ||------------------------------|--------------------------------|

1.
~~~
E E E E E E E E E E E E E E E E E E E E E Q.
 
 |-------------------------|--------------------------||
 |-------------------------|-------------------------o||
 |-------7-----------7-----|-------6-6-6-6-6-6-[6]----||
 |-5-7-8---8-7-5-7-8---8-7-|-5-7-8--------------------||
 |-------------------------|-------------------------o||
 |-------------------------|--------------------------||

|
| ~~~
| E E E E E E E E E E E E E E E E E E E E E Q.
 
 |-------------------------|--------------------------||
 |-------------------------|-------------------------o||
 |-------7-----------7-----|-------6-6-6-6-6-6-[6]----||
 |-5-7-8---8-7-5-7-8---8-7-|-5-7-8--------------------||
 |-------------------------|-------------------------o||
 |-------------------------|--------------------------||

2.
E E E E E E E E E E E E E E E E E E E Q Q.
 
 |-------------------------|------------------------|
 |-------------------------|------------------------|
 |-------7-----------7-----|-------6-6-6-6----------|
 |-5-7-8---8-7-5-7-8---8-7-|-5-7-8-------6----------|
 |-------------------------|-------------4----------|
 |-------------------------|------------------------|

|
| E E E E E E E E E E E E E E E E E E E Q Q.
 
 |-------------------------|------------------------|
 |-------------------------|------------------------|
 |-------7-----------7-----|-------6-6-6-6----------|
 |-5-7-8---8-7-5-7-8---8-7-|-5-7-8-------6----------|
 |-------------------------|-------------4----------|
 |-------------------------|------------------------|

Q=138
[4/4] Gtrs III, IV
S S S S +S S E S S S S +S S E S S S S +S S E S S S S E E
 
 ||----------------------------------|-----------------------------|
 ||o---------------------------------|-----------------------------|
 ||----------------------------------|-------------------------5-5-|
 ||----------------------------------|-------------------------5-5-|
 ||o-0-6-5-3-(3)-5-6-0-6-5-3-(3)-5-6-|-0-6-5-3-(3)-5-6-0-0-0-0-3-3-|
 ||----------------------------------|-----------------------------|

1.
S S S S +S S E S S S S +S S E S S S S +S S E S S S S E E
 
 |---------------------------------|------------------------------||
 |---------------------------------|-----------------------------o||
 |---------------------------------|------------------------------||
 |---------------------------------|-------------------------6-6--||
 |-0-6-5-3-(3)-5-6-0-6-5-3-(3)-5-6-|-0-6-5-3-(3)-5-6-0-0-0-0-6-6-o||
 |---------------------------------|-------------------------4-4--||

2.
 
 |-3-| |-3-| |-3-| |-3-|

S S S S +S S E S S S S E E E E E E E E E E E E E E
 
 |-----------------------------|----------------------------||
 |-----------------------------|----------------------------||
 |-----------------------------|----------------------------||
 |---5-3-1-(1)-3-5---------6-6-|---7-----5-----3---2--------||
 |-0-6-5-3-(3)-5-6-0-0-0-0-6-6-|-------------------2--------||
 |-------------------------4-4-|-5-----3-----1-----0---0----||

Break Acoustique
Q=68
Gtr III
>
W W
 
 |-------------------------------------|-----------------------------------|
 |-3-----------------------------------|-----------------------------------|
 |-2-----------------------------------|-----------------------------------|
 |-0-----------------------------------|-----------------------------------|
 |-0-----------------------------------|-----------------------------------|
 |-------------------------------------|-----------------------------------|

|
| Gtr II
| |-3-| |-3-|
| S S S S S S S S S S S S T T T S S S S S S S S S S S S S S S S S S S S
 
 |-------5-8p5-----------5-3h5p3-------|-------0-0h1p0-------------3-------|
 |-----6-------6-------3---------6-5-3-|-----1---------1---------2---2-----|
 |---7---------------3-----------------|---0-------------0-----0-------0---|
 |-0-------------0h3-------------------|---------------------2-----------2-|
 |-------------------------------------|-3-----------------0---------------|
 |-------------------------------------|-----------------------------------|

W
 
 |----------------------------------------|
 |----------------------------------------|
 |----------------------------------------|
 |----------------------------------------|
 |----------------------------------------|
 |----------------------------------------|

|
| |-3-|
| S S S S S S S S S S S S T T T S S S
 
 |-------5-8p5-----------5-3h5p3----------|
 |-----6-------6-------3---------6-5-3----|
 |---7---------------3--------------------|
 |-0-------------0h3----------------------|
 |----------------------------------------|
 |----------------------------------------|

Q=104
Gtrs III, IV
PM|
S S S S S S S S S S S S S S S S H. S S S S W
 
 |---------------------------------|-----------------|------|
 |---------------------------------|-----------------|------|
 |---------------------------------|-5---------5-----|-4----|
 |-2-2-2-2-2-2-2-2S7-7-7-7-7-7-7-7-|-5---------5-----|-4----|
 |-0-0-0-0-0-0-0-0-0-0-0-0-0-0-0-0-|---------0---0-0-|------|
 |---------------------------------|-----------------|------|

PM|
H. S S S S H H H. S S S S H. +S S S S
 
 |-----------------|-----------|-----------------|-------------------|
 |-----------------|-----------|-----------------|-------------------|
 |-5---------5-----|-4---------|-5---------5-----|-4-------(4)-4-4s5-|
 |-5---------5-----|-4---------|-5---------5-----|-4-------(4)-4-4s5-|
 |---------0---0-0-|-----------|---------0---0-0-|-------------------|
 |-----------------|-----------|-----------------|-------------------|

H. S S S S H. Q
 
 |-----------------|--------------|
 |-----------------|--------------|
 |-5-------5-5-----|-4------------|
 |-5-------5-5-----|-4------------|
 |-------------0-0-|--------------|
 |-----------------|---------12\--|

Verse
$
E S S S S S S S S S S S S S S
 
 ||--------------------------------|
 ||o-------------------------------|
 ||--5-----------------------5-----|
 ||--5-----------------------5-----|
 ||o---0-0-0-0-0-0-0-0-0-0-0---0-0-|
 ||--------------------------------|

E S S S S S S S S S S S S S S
 
 |--------------------------------------------------||
 |-------------------------------------------------o||
 |-4------------------------------------------------||
 |-4------------------------------------------------||
 |---0-0-0-0-0-[0]-[0]-[0]-------------------------o||
 |-------------------------[0]-[2]-[3]-[5]-[3]-[2]--||

E S S E S T T S S S S S S S S
 
 |-------------------------------|
 |-------------------------------|
 |-5-----5-----------------5-----|
 |-5-----5-----------------5-----|
 |---0-0---0-0-0-0-0-0-0-0---0-0-|
 |-------------------------------|

[5/4] E S S S S S S S S S S S S S S Q
 
 |-----------------------------------------------------|
 |-----------------------------------------------------|
 |-4---------------------------------------------------|
 |-4---------------------------------------------------|
 |---0-0-0-0-0-[0]-[0]-[0]-----------------------------|
 |-------------------------[0]-[2]-[3]-[5]-[3]-[2]-----|

[4/4] E S S S S S S S S S S S S S S
 
 |-------------------------------|
 |-------------------------------|
 |-5-----------------------5-----|
 |-5-----------------------5-----|
 |---0-0-0-0-0-0-0-0-0-0-0---0-0-|
 |-------------------------------|

To Coda
E S S S S S S S S S S S S S S
 
 |--------------------------------------------------|
 |--------------------------------------------------|
 |-4------------------------------------------------|
 |-4------------------------------------------------|
 |---0-0-0-0-0-[0]-[0]-[0]--------------------------|
 |-------------------------[0]-[2]-[3]-[5]-[3]-[2]--|

S S S S S S S S S S S S S E. S S S S S S S S S S S S S S S S
 
 |--------------------------------|--------------------------------------|
 |--------------------------------|--------------------------------------|
 |--------------------------------|--------------------------------------|
 |-10s9---------------------------|-10s9-----------------------[3]-------|
 |--8s7-----7s6-------------------|--8s7-----7s6-------3-----------------|
 |------0-0-5s4-0-0-0-0-0-0-0-12\-|------0-0-5s4-0-0-0-1-0-0-1-----[1]p0-|

S S S S S S S S S S S S S S E
 
 |----------------------------/15-15\-|
 |----------------------------/17-17\-|
 |------------------------------------|
 |-10s9-------------------------------|
 |--8s7-----7s6-----------------------|
 |------0-0-5s4-0-0-0-0-0-0-0---------|

Chorus
&
S S S S S S S S S S S S S S E S S S S S S S S S S S S S E.
 
 |---------------------------------||---------------------------------|
 |---------------------------------||o--------------------------------|
 |---------------------------------||---------------------------------|
 |-10s9---------------------9S10---||--10s9---------------------------|
 |--8s7-----7s6-------6S7---7S=8---||o--8s7-----7s6-------------------|
 |------0-0-5s4-0-0-0-4S5----------||-------0-0-5s4-0-0-0-0-0-0-0-12\-|

S S S S S S S S S S S S S S S S
 
 |------------------------------------|
 |------------------------------------|
 |------------------------------------|
 |-10s9-------------------------------|
 |--8s7-----7s6-------3-----3----3----|
 |------0-0-5s4-0-0-0-1-0-0-1---[1]---|

D.S. al Coda
S S S S S S S S S S S S S S E S S S S S S S S S S S S S S E
 
 |----------------------------/15-15\-|-----------------------------------||
 |----------------------------/17-17\-|----------------------------------o||
 |------------------------------------|-----------------------------------||
 |-10s9-------------------------------|-10s9---------------------9S10-----||
 |--8s7-----7s6-----------------------|--8s7-----7s6-------6S7---7S=8----o||
 |------0-0-5s4-0-0-0-0-0-0-0---------|------0-0-5s4-0-0-0-4S5------------||

Interlude
Gtr III
E E E E E E E E E E E E H W
 
 ||--------------------|---------------|-------------------|
 ||o-------------------|---------------|-------------------|
 ||--------------------|----------7----|-------------------|
 ||--7-10-9-6-7-10-9-6-|-7-10-9-6-7----|-------------------|
 ||o-5--8-7-4-5--8-7-4-|-5--8-7-4-5----|-------------------|
 ||--------------------|----------5----|-------------------|

|
| Gtr I
| W W e e e e e e e e
 
 ||--------------------|---------------|-------------------|
 ||o-------------------|---------------|-------------------|
 ||--------------------|---------------|-7-10-9-6-7-10-9-6-|
 ||--------------------|---------------|-------------------|
 ||o-------------------|---------------|-------------------|
 ||--------------------|---------------|-------------------|

1. 2.
H H H S Q..
 
 |----------------||-------------------||
 |---------------o||-------------------||
 |----------7-----||----------7--------||
 |----------7-----||----------7--------||
 |----------5----o||----------5--------||
 |----------------||-------------------||

|
| e e e e H e e e e H
 
 |----------------||-------------------||
 |---------------o||-------------------||
 |-7-10-9-6-------||-7-10-9-6----------||
 |----------------||-------------------||
 |---------------o||-------------------||
 |----------------||-------------------||

Guitar Solo
Q.=155
12/8
Gtr III
E E E E E E E E E E E E E E E E E E E Q Q.
 
 |-----------------------------|-------------------------|
 |-----------------------------|-------------------------|
 |-----------------------------|---------------7---------|
 |-10-8-7-8-7----7-------------|--------7-8-10-----------|
 |------------10---10-8-10-8-7-|-7-8-10------------------|
 |-----------------------------|-------------------------|

|
| Gtr IV
| E E E E E E E E E E E E E E E E E E E Q Q.
 
 |-----------------------------|-------------------------|
 |-----------------------------|-------------------------|
 |-----------------------------|---------------7---------|
 |-10-8-7-8-7----7-------------|--------7-8-10-----------|
 |------------10---10-8-10-8-7-|-7-8-10------------------|
 |-----------------------------|-------------------------|

[E] [E] [E] [E] [E] [E] [E] [E] [E] [E] [E] [E] [E] [E] [E] [E] [E] [E] [E] [E] [E] [E] [E] [E]  
 
 |-----------------------------|---------------------------------------|
 |-----------------------------|---------------------------------------|
 |-----------------------------|---------------------------------------|
 |-10-8-7-8-7----7-------------|-----------7--8-10S12-10--8------------|
 |------------10---10-8-10-8-7-|--7--8-10-------------------12-10--8---|
 |-----------------------------|---------------------------------------|

|
| E E E E E E E E E E E E E E E E E E E E E E E E
 
 |-----------------------------|---------------------------------------|
 |-----------------------------|---------------------------------------|
 |-----------------------------|---------------------------------------|
 |-10-8-7-8-7----7-------------|----------10-12-14S15-14-12------------|
 |------------10---10-8-10-8-7-|-10-12-13-------------------15-13-12---|
 |-----------------------------|---------------------------------------|

Q E E E E E E E E E E Q E E E E E E E E E E
 
 |-------------------------------|--------------------------------------|
 |-------------------------------|--------------------------------------|
 |-------------------------------|--4-----------------------------------|
 |---2---------------------------|--2-----------------------------------|
 |---0-------0-0-0-0-0-0-0-0-0-0-|--------0--0--0--0--0----0-0---0--0-0-|
 |-------------------------------|--------------------------------------|

|
| Gtr V
| ~~~~
| W. E E E E E E Q. +Q.
 
 |-------------------------------|-10-12----10--------------------------|
 |-[13]pb15r=====================|=======13----12-13-12b13r====(12)-----|
 |-------------------------------|--------------------------------------|
 |-------------------------------|--------------------------------------|
 |-------------------------------|--------------------------------------|
 |-------------------------------|--------------------------------------|

Q E E E E E E E E E E
 
 |-------------------------------------|
 |-------------------------------------|
 |--5----------------------------------|
 |--3----------------------------------|
 |--------0--0--0--0--0--0--0-0--0-0---|
 |-------------------------------------|

|
| E E E E E E E E E E E E
 
 |-13----13S12----12S10----10S8----8S==|
 |----15-------13-------12------10-----|
 |-------------------------------------|
 |-------------------------------------|
 |-------------------------------------|
 |-------------------------------------|
 PM---------------------------|

H. Q. Q. Q E E E E E E E E E E
 
 |-------------------------------|-------------------------------------------|
 |-------------------------------|-------------------------------------------|
 |-------------------------------|-------------------------------------------|
 |-5-----------5-----------------|--2----------------------------------------|
 |-2S==========3------2----------|--0---0-----0--0--0---0--0-0---0---0--0----|
 |-------------------------------|-------------------------------------------|

|
| ~~~~~
| |--3---|
| Q. Q. Q. Q. +Q S S Q S S E E E +Q. +Q S S
 
 |-7-----------------------------|-12--------13------------------------------|
 |----8--------------------------|--------------13-13-(13)-----(13)\---------|
 |--------7----------------12s14-|-----12s14-------12-(12)-----(12)\---12s14-|
 |------------[9]---([9])--------|-------------------------------------------|
 |-------------------------------|-------------------------------------------|
 |-------------------------------|-------------------------------------------|
 PM---------------------------|

Q E E E E E E E E E E
 
 |------------------------------------------|
 |------------------------------------------|
 |------------------------------------------|
 |------------------------------------------|
 |-10\---0-----0--0--0---0--0-0---0---0-0---|
 |--8---------------------------------------|

|
| Q S S E E E +Q. +Q.
 
 |-12---------13----------------------------|
 |---------------13-13-(13)-----(13)\-------|
 |------12s14-------12-(12)-----(12)\-------|
 |------------------------------------------|
 |------------------------------------------|
 |------------------------------------------|
 PM---------------------|

Q E E E E E E E E E E H. Q. Q.
 
 |------------------------------------|---------------------------------|
 |------------------------------------|---------------------------------|
 |------------------------------------|---------------------------------|
 |------------------------------------|-5------------5------------------|
 |-10\-----0--0--0--0--0--0--0-0--0-0-|-2S===========3-----2------------|
 |--8---------------------------------|---------------------------------|

|
 
 | |---3---|

| E E E E E E E E E Q. Q. Q. Q. Q. E E E
 
 |-15-----------12h13-----------------|------------------------------14-|
 |-----13p12-------------12h13--------|---------------------------14----|
 |-----------14-------10-------9------|-7--5---[4]--------16b16.5r======|
 |------------------------------------|---------------------------------|
 |------------------------------------|-------------[7]-----------------|
 |------------------------------------|---------------------------------|

[E] [E] [E] [E] [E] [E] [E] [E] [E] [E] [E] [E]  
 
 |----------------------------------------------------------|
 |----------------------------------------------------------|
 |----------------------------------------------------------|
 |-11------11---11---11-------11--11--11----11-11-11-11-11--|
 |--9-------9----9----9--------9---9---9-----9--9--9--9--9--|
 |----------------------------------------------------------|

|
| ~~~~~~
| E +E +E +E +Q +Q. E E E
 
 |----------------------------------------------------------|
 |-17b19==(17)r(17)-(17)b19==(17)----(17)r\-----------7-10--|
 |-------------------------------------------------6--------|
 |----------------------------------------------------------|
 |----------------------------------------------------------|
 |----------------------------------------------------------|
 PM----------------------------------

E E E E E E Q. Q. E E E E E E E E E E E E
 
 |-------------------------------|-------------------------------------|
 |-------------------------------|-------------------------------------|
 |-------------------------------|-------------------------------------|
 |-11--11-11-11-11-11-11\---4----|-------------------------------------|
 |--9---9--9--9--9--9--9\---2----|--4---4-4-4-4----4---4-4--4---4--4-4-|
 |-------------------------------|--2---2-2-2-2----2---2-2--2---2--2-2-|

|
| ~~~
| H. +Q. Q. +Q E E. S S S Q S S Q.
 
 |-------------------------------|-------------------------------------|
 |--9-----------------(9)---9----|-(9)\---9-9h==10p9p7-9h==10p9-7------|
 |-------------------------------|-------------------------------------|
 |-------------------------------|-------------------------------------|
 |-------------------------------|-------------------------------------|
 |-------------------------------|-------------------------------------|
 -------------------|

E E E E E E E E E Q.
 
 |----------------------------------|
 |----------------------------------|
 |----------------------4-----------|
 |----------------------4-----------|
 |-4-4-4-4-4--4-4--4-4--2-----------|
 |-2-2-2-2-2--2-2--2-2--------------|

|
| ~~
| E E E E E E Q. +Q S S
 
 |-----------------------------14---|
 |-------7-9h10-7------(7)--14------|
 |-----6----------------------------|
 |---7------------------------------|
 |-9--------------------------------|
 |----------------------------------|

[E] [E] [E] [E] [E] [E] [E] [E] [E] [E] [E] [E]  
 
 |----------------------------------------------------|
 |----------------------------------------------------|
 |----------------------------------------------------|
 |-11-----11-11--11---11-11----11-11-11----11---11-11-|
 |--9------9--9---9----9--9-----9--9--9-----9----9--9-|
 |----------------------------------------------------|

|
| \1/
| ~~~~
| Q. +Q S S E E S S Q.
 
 |-17b19========(17)r-------14-16-17-16-14-14---------|
 |------------------------x---------------------------|
 |----------------------------------------------------|
 |----------------------------------------------------|
 |----------------------------------------------------|
 |----------------------------------------------------|
 PM----------------------| PM-----------------------|

E E E E E E E E E Q. E E E E E E E E E E E E
 
 |----------------------------------|-----------------------------|
 |----------------------------------|-----------------------------|
 |-----------------------------4----|-----------------------------|
 |-11-11-11-11-11-11-11--11-11-4----|-----------------------------|
 |--9--9--9--9--9--9--9---9--9-2----|-4-4-4-4----4-4-4-4-4-4-4-4--|
 |----------------------------------|-2-2-2-2----2-2-2-2-2-2-2-2--|

|
| ~~~
| E E E E E E H. E E E Q. E E E E E E
 
 |-------19S21-------17-------------|-5-4-------------------------|
 |----17-------19-------------------|-----5-4tr5-----2-5-2--------|
 |-16-------------18----------------|----------------------5-4-3--|
 |----------------------------------|-----------------------------|
 |----------------------------------|-----------------------------|
 |----------------------------------|-----------------------------|
 PM----------------|

E E E E E E E E E Q. W.
 
 |--------------------------|-----------------------------------------------|
 |--------------------------|-----------------------------------------------|
 |---------------------4----|-----------------------------------------------|
 |---------------------4----|--2--------------------------------------------|
 |-4-4-4-4-4-4--4--4-4-2----|--0--------------------------------------------|
 |-2-2-2-2-2-2--2--2-2------|-----------------------------------------------|

|
| \2
| ~~~~~
| E E E E E E H. E +Q +Q. E E E E E E
 
 |--------------------------|-15b17==(15)--(15)r---15pb17r15-12-------12-17-|
 |-------------[7]----------|-----------------------------------15b17-------|
 |-4-3---3------------------|-----------------------------------------------|
 |-----4---4-2--------------|-----------------------------------------------|
 |--------------------------|-----------------------------------------------|
 |--------------------------|-----------------------------------------------|

+W. W.
 
 |-------------------------------------|----------------------------------------------------|
 |-------------------------------------|----------------------------------------------------|
 |-------------------------------------|----------------------------------------------------|
 |-(2)---------------------------------|--4-------------------------------------------------|
 |-(0)---------------------------------|--4-------------------------------------------------|
 |-------------------------------------|--2-------------------------------------------------|

|
| E E E E E E H. E E E E E E E. S S S E E E
 
 |-19--15h17--------12s17-20pb22=======|==========14----------------------------------------|
 |-----------15pb17--------------------|-------14----17----14-------------------------------|
 |-------------------------------------|-16b17----------16----16pb17r16p14----16----[14]S===|
 |-------------------------------------|-----------------------------------16----16---------|
 |-------------------------------------|----------------------------------------------------|
 |-------------------------------------|----------------------------------------------------|

Last Verse
Q=104
[4/4]  
 
 |------3------| |-----3-----|

q. q. q. q. q. q. E S S S S S S S S S S S S S S
 
 |----------------------------------------|----------------------------------|
 |----------------------------------------|----------------------------------|
 |----------------------------------------|---5------------------------5-----|
 |------------------------------------7---|---5------------------------5-----|
 |---5------4------2------4-----2-----5---|------0-0-0-0-0-0-0-0-0-0-0---0-0-|
 |---3------2------0------2-----0---------|----------------------------------|

|
| >
 
 | |-----3-----|

| E E E E E E Q. Q. Q. +W
 
 |-----------------------------------14---|-(14)-----------------------------|
 |-----------------------------15---(15)--|-(15)-----------------------------|
 |-[15]--------14--------14---(14)--(14)--|-(14)-----------------------------|
 |------16-14-----14--16------------------|----------------------------------|
 |----------------------------------------|----------------------------------|
 |----------------------------------------|----------------------------------|

E S S S S S S S S S S S S S S
 
 |------------------------------------------------|
 |------------------------------------------------|
 |---4--------------------------------------------|
 |---4--------------------------------------------|
 |------0-0-0-0-0-0-------------------------------|
 |------------------5-5-[0]-[2]-[3]-[5]-[3]-[2]---|

|
| +W
 
 |-(14)-------------------------------------------|
 |-(15)-------------------------------------------|
 |-(14)-------------------------------------------|
 |------------------------------------------------|
 |------------------------------------------------|
 |------------------------------------------------|

[4/4] E S S S S S S S S S S S S S S E S S S S S S S S S S S S S S
 
 |-------------------------------|-------------------------------------------|
 |-------------------------------|-------------------------------------------|
 |-5-----------------------5-----|-4-----------------------------------------|
 |-5-----------------------5-----|-4-----------------------------------------|
 |---0-0-0-0-0-0-0-0-0-0-0---0-0-|---0-0-0-0-0-0-0-0-------------------------|
 |-------------------------------|-------------------[0]-[2]-[3]-[5]-[3]-[2]-|

E S S E S S S S S S S S S S [5/4] E S S S S S S S S S S S S S S Q
 
 |-----------------------------|----------------------------------------------------|
 |-----------------------------|----------------------------------------------------|
 |-5-----5---------------5-----|-4--------------------------------------------------|
 |-5-----5---------------5-----|-4--------------------------------------------------|
 |---0-0---0-0-0-0-0-0-0---0-0-|---0-0-0-0-0-[0]-[0]-[0]----------------------------|
 |-----------------------------|-------------------------[0]-[2]-[3]-[5]-[3]-[2]----|

[4/4] E S S S S S S S S S S S S S S
 
 |----------------------------------|
 |----------------------------------|
 |-5-----------------------5--------|
 |-5-----------------------5--------|
 |---0-0-0-0-0-0-0-0-0-0-0---0-0----|
 |----------------------------------|

Out-Chorus
E S S S S S S S S S S S S S S
 
 |-------------------------------------------------|
 |-------------------------------------------------|
 |-4-----------------------------------------------|
 |-4-----------------------------------------------|
 |---0-0-0-0-0-[0]-[0]-[0]-------------------------|
 |-------------------------[0]-[2]-[3]-[5]-[3]-[2]-|

S S S S S S S S S S S S S E. S S S S S S S S S S S S S S S S
 
 |--------------------------------|------------------------------------|
 |--------------------------------|------------------------------------|
 |--------------------------------|------------------------------------|
 |-10s9---------------------------|-10s9-------------------------------|
 |--8s7-----7s6-------------------|--8s7-----7s6-------3-----3----3----|
 |------0-0-5s4-0-0-0-0-0-0-0-12\-|------0-0-5s4-0-0-0-1-0-0-1---[1]---|

S S S S S S S S S S S S S S E
 
 |----------------------------/15-15\-|
 |----------------------------/17-17\-|
 |------------------------------------|
 |-10s9-------------------------------|
 |--8s7-----7s6-----------------------|
 |------0-0-5s4-0-0-0-0-0-0-0---------|

S S S S S S S S S S S S S S E S S S S S S S S S S S S S E.
 
 |---------------------------------|---------------------------------|
 |---------------------------------|---------------------------------|
 |---------------------------------|---------------------------------|
 |-10s9---------------------9S10---|-10s9----------------------------|
 |--8s7-----7s6-------6S7---7S=8---|--8s7-----7s6--------------------|
 |------0-0-5s4-0-0-0-4S5----------|------0-0-5s4-0-0-0-0-0-0-0-12\--|

S S S S S S S S S S S S S S S S
 
 |--------------------------------------|
 |--------------------------------------|
 |--------------------------------------|
 |-10S9-----------------------[3]-------|
 |--8S7-----7s6-------3-----------------|
 |------0-0-5s4-0-0-0-1-0-0-1-----[1]p0-|

S S S S S S S S S S S S S S E S S S S S S S S S S S S S S E
 
 |----------------------15-15-15-15-15\-|-----------------------------------|
 |----------------------17-17-17-17-17\-|-----------------------------------|
 |--------------------------------------|-----------------------------------|
 |-10s9---------------------------------|-10S9---------------------9S10-----|
 |--8s7-----7s6-------------------------|--8S7-----7s6-------6S7---7S=8-----|
 |------0-0-5s4-0-0-0-0-----------------|------0-0-5s4-0-0-0-4S5------------|

PM|
H. S S S S H. +S S S S H. S S S S H H
 
 |-----------------|-------------------|-----------------|-----------|
 |-----------------|-------------------|-----------------|-----------|
 |-5---------5-----|-4-------(4)-4-4s5-|-5-------5-5-----|-4---------|
 |-5---------5-----|-4-------(4)-4-4s5-|-5-------5-5-----|-4---------|
 |---------0---0-0-|-------------------|-------------0-0-|-----------|
 |-----------------|-------------------|-----------------|-----------|

E S S S S S S S S S S S S S S E S S S S S S S S S S S S S S
 
 |-------------------------------|-------------------------------------------------|
 |-------------------------------|-------------------------------------------------|
 |-5-----------------------5-----|-4-----------------------------------------------|
 |-5-----------------------5-----|-4-----------------------------------------------|
 |---0-0-0-0-0-0-0-0-0-0-0---0-0-|---0-0-0-0-0-[0]-[0]-[0]-------------------------|
 |-------------------------------|-------------------------[0]-[2]-[3]-[5]-[3]-[2]-|

E S S S S S T T S T T S T T S S S S
 
 |-------------------------------------|
 |-------------------------------------|
 |-5-----------------------------5-----|
 |-5-----------------------------5-----|
 |---0-0-0-0-0-0-0-0-0-0-0-0-0-0---0-0-|
 |-------------------------------------|

E S S S S S S S S S S S S S S Q. E H
 
 |-------------------------------------------------|-------------*|
 |-------------------------------------------------|-------------*|
 |-4-----------------------------------------------|-5-----------*|
 |-4-----------------------------------------------|-5-----------*|
 |---0-0-0-0-0-[0]-[0]-[0]-------------------------|-3-----------*|
 |-------------------------[0]-[2]-[3]-[5]-[3]-[2]-|-------------*|

Duration Legend
 
 ---------------
 W - whole; H - half; Q - quarter; E - 8th; S - 16th; T - 32nd; X - 64th; a - acciaccatura

+ - note tied to previous; . - note dotted; .. - note double dotted
Uncapitalized letters represent notes that are staccato (1/2 duration)
Irregular groupings are notated above the duration line
Duration letters will always appear directly above the note/fret number it represents the
duration for. Duration letters with no fret number below them represent rests. Multi-
bar rests are notated in the form Wxn, where n is the number of bars to rest for. Low
melody durations appear below the staff
Tablature Legend
 
 ----------------

h - hammer-on
p - pull-off
b - bend
pb - pre-bend
r - bend release (if no number after the r, then release immediately)
/\ - slide into or out of (from/to "nowhere")
s - legato slide
S - shift slide
- natural harmonic
[n] - artificial harmonic
n(n) - tapped harmonic
~ - vibrato
tr - trill
T - tap
TP - trem. picking
PM - palm muting
\n/ - tremolo bar dip; n = amount to dip
\n - tremolo bar down
n/ - tremolo bar up
/n\ - tremolo bar inverted dip
= - hold bend; also acts as connecting device for hammers/pulls
- volume swell (louder/softer)
x - on rhythm slash represents muted slash
o - on rhythm slash represents single note slash
Misc Legend
 
 -----------

| - bar
|| - double bar
||o - repeat start
o|| - repeat end
*| - double bar (ending)
: - bar (freetime)
$ - Segno
& - Coda
Tempo markers - = BPM(8/16=s8/s16), where s8 = swing 8ths, s16 = swing 16ths

Important: The song above is NOT stored on the Chordie server. The original song is hosted at www.guitaretab.com. Chordie works as a search engine and provides on-the-fly formatting. Chordie does not index songs against artists'/composers' will. To remove this song please click here.

Text color:
Chord color:
Chord grids: 
Font size:    
Page size: 

E
Rate #1 of 4 versions

Jango Player

Login - add to songbook

SHARE PAGE  




You need to log in to post comments