Guitar Tabs, Chords and Lyrics
Server problems seems to be fixed. Chordie has been experiencing problems with songs disappearing. These issues now seems to be fixed, but still verifying the fix. If you find anything strange, please email admin@chordie.com.


Who Cares  Anouk

Note: this is NOT my tab
email: stephen518@caramail.com
Interprète : Anouk
titre: "Who cares " (acoustic version)
fournisseur: Stephen Maley
Tab: Capo 5
INTRO : En arpège
[F] [E] [Am] [Am6] [Am7] [Am] [F] [E] 
 
 |----------------------5-----------------------------------|
 |---6-----5------5-----------6-----5-5-----8-8-----6-6-----|
 |-----7------------6-----------7-------7-------7-------7---|
 |-------8------------7-----------7-------7-------7-------7-|
 |--------------------------5-------------------------------|
 |-6-----------5--------------------------------------------|
 |--------------------|
 |-6-----5----5-----5-|
 |---7----------6-----|
 |-----8----------7---|
 |--------------------|
 |6---------5---------|

[F]Did you ever wake up in the morning[E]
Wit[Am]h a freigh[Am6]t-train runn[Am7]ing through[Am] your head
An em[F]pty whiskey bottle by your pillow
And a burned o[E]ut unfinished cigarette[Am]
[Am6]The night we[Am7]nt up in sm[Am]oke[F]
Li[E]fe is but a joke man[Am]
But I see nobo[Am6]dy laughing[Am7] [Am]
[F] [E] [Am] [Am6] [Am7] [Am]  
Did you ever live a day
Like the next day would never come
Blood's dripping on the floor, but who cares
Who needs you anyway
You're a stranger to yourself
And this ain't no joke man
But I can't stop laughing
(chorus)
[C]Greedy, ang[Dm]ry peop[F]le make me
R[G]un around in circles ba[Am]ckwards
[C]Down[Dm] the lon[F]ely road that keeps me
[G]Run around in circles[Am]
[F]How I want to try again[G]
Excuse me can you lead m[Am]e
[F]I just want to try again[G]
Excuse me can you lead the [Am]way
[Am]Just take me by the hand
[F]How I wan[E]t to[Am]

Important: The song above is NOT stored on the Chordie server. The original song is hosted at www.guitaretab.com. Chordie works as a search engine and provides on-the-fly formatting. Chordie does not index songs against artists'/composers' will. To remove this song please click here.

Text color:
Chord color:
Chord grids: 
Font size:    
Page size: 

Am Am6 Am7 C Dm E F G
Rate #1 of 2 versions

Jango Player

Login - add to songbook

SHARE PAGE  




You need to log in to post comments