Guitar Tabs, Chords and Lyrics
Server problems seems to be fixed. Chordie has been experiencing problems with songs disappearing. These issues now seems to be fixed, but still verifying the fix. If you find anything strange, please email admin@chordie.com.


Michel  Anouk

Hint: if you see (picking) pick the chords like the 2nd part of the intro. I left out
the 'sus'-es. So you can see for yourself when you have to pick what :)
Have fun playing it!
Chords
 
 ------

Dsus2: xx0230
D: xx0232
Asus: x02230
A: x02220
Gsus26: 3x0230
G: 320033
Intro
[-----]  
 
 e|------0---------|
 B|3---3-----3-----|
 G|--2-----------2-|
 D|----------------| x4
 A|----------------|
 E|----------------|

[1] [2] [3] [4]  
[Dsus2] [Asus] [Gsus26]  
 
 e|------0---------|------0---------|------0-------0-|------0--------|
 B|----3-----3-----|----3-----3-----|----3-----3-----|--3-------3----|
 G|--2-----------2-|--2-----------2-|--2---------2---|----2-------2--|
 D|0---------------|----------------|----------------|---------------| x2 (=2nd part)
 A|----------------|0---------------|----------------|---------------|
 E|----------------|----------------|3---------------|---------------|

[1] [2] [3] [4] [1] [2] [3] [4] [1] [2] [3] [4] [1] [2] [3] [4] 
Verse
[-----](keep picking)
[D]Hey Miche[A]l how's life are you ok[G]
[D]I wonder i[A]f you ever think of me[G]
[D]It's been 9[A] years since that kiss[G]
I can't he[A]lp but reminisce
[D]Hey Mich[A]el do you rem[G]ember
Chorus
 
 ------

(strum chords)
We w[D]alked the street to the beat
[A]Hand in hand you and me[G]
[D]Smiling faces so in love
[A]Hoping that they all could se[G]e
That [A]we belonged tog[D]ether you and m[A]e against the world[G]
But [A]we found out the ha[D]rd way cause it [A]wasn't meant to be[G]
(pick G like this)
 
 e|----0-------0---|----0-------0---|
 B|------3-------3-|------3-------3-|
 G|--0-------0-----|--0-------0-----|
 D|----------------|----------------|
 A|----------------|----------------|
 E|3---------------|----------------|

[1] [2] [3] [4] Now[1] it[2]'s y[3]ou a[4]nd her I see
-> Play 2nd part intro
Verse
[-----](picking)
[D]You we[A]re my first and w[G]orst love
[D]And so it [A]only could go wr[G]ong
[D]But ain't th[A]at just the way y[G]ou learn
Hey Miche[D]l I just wa[A]nted to let you know[G]
[D]That someone [A]else has stolen my h[G]eart
[D]And now a[A]nother girl has caught your e[G]ye
D A/E G/D A/C# (the /X are bassnotes, don't mind)
That doesn't mean I don't think of you
[D]I am just hop[A]ing that she'll treat you r[G]ight
Do you remember
-> Play Chorus
Coda
[----](picking)
[D] [A] [G] It was just a silly [D]dream[A] [G]
[D]lalala[A]aah laah laah laah l[G]aah
[D]lalala[A]aah laah laah laah l[G]aah laah
[D]lalala[A]aah laah laah laah l[G]aah
Hey Mich[D]el,[A] do you rem[G]ember
!IT ONLY TAKES A SECOND TO SAY THANKS!

Important: The song above is NOT stored on the Chordie server. The original song is hosted at www.guitaretab.com. Chordie works as a search engine and provides on-the-fly formatting. Chordie does not index songs against artists'/composers' will. To remove this song please click here.

Text color:
Chord color:
Chord grids: 
Font size:    
Page size: 

A Asus D Dsus2 G
Rate #1 of 8 versions

Jango Player

Login - add to songbook

SHARE PAGE  



You need to log in to post comments