Guitar Tabs, Chords and Lyrics
Major upgrade!! After one year development the new version of Chordie is now online! Please give feedback.


Antisocial  Anthrax

As recorded by Anthrax
(From the 1988 Album STATE OF EUPHORIA)
Transcribed by B. Johnson
Words and Music by Bonvoisin - Krief
Gtr I (E A D G B E) - 'Untitled'
Gtr II (E A D G B E) - 'Untitled'
Intro
Q=220
[4/4] Gtr I
W +W W +W
 
 ||--!3--------|-(3)----------|-!3--------|-(3)--------|
 ||o-!5--------|-(5)----------|-!5--------|-(5)--------|
 ||--!5--------|-(5)----------|-!5--------|-(5)--------|
 ||--!5--------|-(5)----------|-!5--------|-(5)--------|
 ||o-!3--------|-(3)----------|-!3--------|-(3)--------|
 ||------------|--------------|-----------|------------|

|
| Gtr II
| W Q H. W Q H.
 
 ||--!0--------|--0-----------|-!0--------|--0---------|
 ||o-!3--------|------3-------|-!3--------|------3-----|
 ||--!0--------|--------------|-!0--------|------------|
 ||--!2--------|--------------|-!2--------|------------|
 ||o-!3--------|--------------|-!3--------|------------|
 ||------------|--------------|-----------|------------|

W +W W +W
 
 |-!3--------|-(3)----------|-!3--------|-(3)---------||
 |-!3--------|-(3)----------|-!3--------|-(3)--------o||
 |-!4--------|-(4)----------|-!4--------|-(4)---------||
 |-!5--------|-(5)----------|-!5--------|-(5)---------||
 |-!5--------|-(5)----------|-!5--------|-(5)--------o||
 |-!3--------|-(3)----------|-!3--------|-(3)---------||

|
| W Q H. W Q H.
 
 |-!3--------|--3-----------|-!3--------|--3----------||
 |-!3--------|------3-------|-!3--------|------3-----o||
 |-!0--------|--------------|-!0--------|-------------||
 |-!0--------|--------------|-!0--------|-------------||
 |-----------|--------------|-----------|------------o||
 |-----------|--------------|-----------|-------------||

Gtrs I, II
PM| PM| PM PM| PM| PM| PM| PM PM| PM|
[E] [E] [E] [E] [E] [E] [E] [E] [E] [E] [E] [E] [E] [E] [E] [E] [E] [E] [E] [E] [E] [E] [E] [E] [E] [E] [E] [E] [E] [E] [E] [E]  
 
 ||------------------|-----------------|-----------------|------------------|
 ||o-----------------|-----------------|-----------------|------------------|
 ||------7-----7---7-|-----7-----7-7-7-|-----7-----7---7-|-----7-----7-7-5--|
 ||------7-----7---7-|-----7-----7-7-7-|-----8-----8---8-|-----8-----8-8-5--|
 ||o-5-5---5-5---5---|-5-5---5-5-------|-5-5---5-5---5---|-5-5---5-5--------|
 ||------------------|-----------------|-----------------|------------------|

PM PM| PM PM| PM| PM| PM| PM|
[+E] [E] [E] [E] [E] [E] [E] [E] [E] [E] [E] [E] [E] [E] [E] [E] [E] [E] [E] [E] [E] [E] [E] [E] [E] [E] [E] [E] [+B]  
 
 |-------------------|-----------------|-----------------|-----------------||
 |-------------------|-----------------|-----------------|-3-3-2-2-(2)----o||
 |-(5)---5-----5---5-|-----5-----5-5-5-|-----2-----2-----|-2-2-2-2-(2)-----||
 |-(5)---5-----5---5-|-----5-----5-5-5-|-----2-----2-----|-----------------||
 |-----3---3-3---3---|-3-3---3-3-------|-0-0---0-0---0-0-|----------------o||
 |-------------------|-----------------|-----------------|-----------------||

Verse 1, 2
PM| PM| PM PM| PM| PM| PM| PM PM| PM|
[E] [E] [E] [E] [E] [E] [E] [E] [E] [E] [E] [E] [E] [E] [E] [E] [E] [E] [E] [E] [E] [E] [E] [E] [E] [E] [E] [E] [E] [E] [E] [E]  
 
 ||------------------|-----------------|-----------------|------------------|
 ||o-----------------|-----------------|-----------------|------------------|
 ||------7-----7---7-|-----7-----7-7-7-|-----7-----7---7-|-----7-----7-7-5--|
 ||------7-----7---7-|-----7-----7-7-7-|-----8-----8---8-|-----8-----8-8-5--|
 ||o-5-5---5-5---5---|-5-5---5-5-------|-5-5---5-5---5---|-5-5---5-5--------|
 ||------------------|-----------------|-----------------|------------------|

PM PM| PM PM| PM| PM| PM| PM|
[+E] [E] [E] [E] [E] [E] [E] [E] [E] [E] [E] [E] [E] [E] [E] [E] [E] [E] [E] [E] [E] [E] [E] [E] [E] [E] [E] [E] [+B]  
 
 |-------------------|-----------------|-----------------|----------------|
 |-------------------|-----------------|-----------------|-3-3-2-2-(2)----|
 |-(5)---5-----5---5-|-----5-----5-5-5-|-----2-----2-----|-2-2-2-2-(2)----|
 |-(5)---5-----5---5-|-----5-----5-5-5-|-----2-----2-----|----------------|
 |-----3---3-3---3---|-3-3---3-3-------|-0-0---0-0---0-0-|----------------|
 |-------------------|-----------------|-----------------|----------------|

PM| PM| PM PM| PM| PM| PM| PM PM| PM|
[E] [E] [E] [E] [E] [E] [E] [E] [E] [E] [E] [E] [E] [E] [E] [E] [E] [E] [E] [E] [E] [E] [E] [E] [E] [E] [E] [E] [E] [E] [E] [E]  
 
 |-----------------|-----------------|-----------------|-----------------|
 |-----------------|-----------------|-----------------|-----------------|
 |-----7-----7---7-|-----7-----7-7-7-|-----7-----7---7-|-----7-----7-7-5-|
 |-----7-----7---7-|-----7-----7-7-7-|-----8-----8---8-|-----8-----8-8-5-|
 |-5-5---5-5---5---|-5-5---5-5-------|-5-5---5-5---5---|-5-5---5-5-------|
 |-----------------|-----------------|-----------------|-----------------|

PM PM| PM PM| PM|
+E E E E E E E E E E E E E E E E +H.. E +H.. E
 
 |-------------------|-----------------|--------------|--------------|
 |-------------------|-----------------|--------------|--------------|
 |-(5)---5-----5---5-|-----5-----5-5-2-|-(2)--------2-|-(2)--------2-|
 |-(5)---5-----5---5-|-----5-----5-5-2-|-(2)--------2-|-(2)--------2-|
 |-----3---3-3---3---|-3-3---3-3-----0-|-(0)--------0-|-(0)--------0-|
 |-------------------|-----------------|--------------|--------------|

PM----|
+H.. E +E E E E E E E E
 
 |--------------|-------------------||
 |--------------|-------------------||
 |-(2)--------2-|-(2)---------------||
 |-(2)--------2-|-(2)-2-2-2-2-7-5-7-||
 |-(0)--------0-|-(0)-0-0-0-0-5-3-5-||
 |--------------|-------------------||

Chorus
 
 PM--------|

H Q E E +H.. E +H.. E +E E E E E E E E
 
 |-------------|--------------|--------------|-------------------|
 |-------------|--------------|--------------|-------------------|
 |-------------|--------------|--------------|-------------------|
 |---------7-5-|-(5)----------|--------------|-----------3-----7-|
 |---------5-3-|-(3)--------5-|-(5)--------3-|-(3)-3-3-5---5-3-5-|
 |-------------|------------3-|-(3)--------1-|-(1)---------------|
 PM--------| PM--------|

+H.. E +E E E E E E E E +H.. E +E E E E E E E E
 
 |--------------|-------------------|--------------|-------------------|
 |--------------|-------------------|--------------|-------------------|
 |--------------|-------------------|--------------|-------------------|
 |-(7)--------5-|-(5)---------------|--------------|-----------------7-|
 |-(5)--------3-|-(3)---3---3---3-5-|-(5)--------3-|-(3)-3-3-3-3-3-3-5-|
 |--------------|-----5---5---5---3-|-(3)--------1-|-(1)-1-1-1-1-1-1---|
 PM--------|

H Q E E +H.. E +H.. E +E E E E E E E E
 
 |-------------|--------------|--------------|-------------------|
 |-------------|--------------|--------------|-------------------|
 |-------------|--------------|--------------|-------------------|
 |---------7-5-|-(5)----------|--------------|-----------3-----7-|
 |---------5-3-|-(3)--------5-|-(5)--------3-|-(3)-3-3-5---5-3-5-|
 |-------------|------------3-|-(3)--------1-|-(1)---------------|
 PM-------------

+H.. E +H.. E +E E E E E E E E
 
 |--------------|--------------|-------------------|
 |--------------|--------------|-------------------|
 |--------------|--------------|-------------------|
 |-(7)--------5-|-(5)----------|-------------------|
 |-(5)--------3-|-(3)--------5-|-(5)---------------|
 |--------------|------------3-|-(3)-1-3-1-3-1-3-1-|

1.
 
 -------------|

E E E E E E E E H Q E E
 
 |-----------------|--------------||
 |-----------------|-------------o||
 |-----------------|-----------7--||
 |---------------7-|-----------7--||
 |---------------5-|-------------o||
 |-3-1-3-1-3-1-3---|--------------||

Interlude
2.
$
Gtr I
 
 PM------------|

E E E E E E E E W +W W +W
 
 |-----------------||-!3--------|-(3)----------|-!3--------|-(3)-----------|
 |-----------------||-!5--------|-(5)----------|-!3--------|-(3)-----------|
 |-----------------||-!5--------|-(5)----------|-!4--------|-(4)-----------|
 |-----------------||-!5--------|-(5)----------|-!5--------|-(5)-----------|
 |-----------------||-!3--------|-(3)----------|-!5--------|-(5)-----------|
 |-3-1-3-1-3-1-3-5-||-----------|--------------|-!3--------|-(3)-----------|

|
| Gtr II
| W W Q H. W Q Q Q Q
 
 |-----------------||-!0--------|--0-----------|-!3--------|--3------3-----|
 |-----------------||-!3--------|------3-------|-!3--------|------3-----3--|
 |-----------------||-!0--------|--------------|-!0--------|---------------|
 |-----------------||-!2--------|--------------|-!0--------|---------------|
 |-----------------||-!3--------|--------------|-----------|---------------|
 |-----------------||-----------|--------------|-----------|---------------|

To Coda
W +W W +W
 
 |-!3--------|-(3)----------|-!3--------|-(3)-----------||
 |-!5--------|-(5)----------|-!3--------|-(3)-----------||
 |-!5--------|-(5)----------|-!4--------|-(4)-----------||
 |-!5--------|-(5)----------|-!5--------|-(5)-----------||
 |-!3--------|-(3)----------|-!5--------|-(5)-----------||
 |-----------|--------------|-!3--------|-(3)-----------||

|
| W Q H. W Q Q Q Q
 
 |-!0--------|--0-----------|-!3--------|--3------3-----||
 |-!3--------|------3-------|-!3--------|------3--------||
 |-!0--------|--------------|-!0--------|---------------||
 |-!2--------|--------------|-!0--------|---------------||
 |-!3--------|--------------|-----------|---------------||
 |-----------|--------------|-----------|---------------||

\4__________|
~~~~~~~~~~~~~~~~~~~
H.. +E W +W W
 
 |-----------------|--------------|----------------|-----------------|
 |-----------------|--------------|----------------|-----------------|
 |-----------------|--------------|----------------|-----------------|
 |-----------------|--------------|----------------|-----------------|
 |-10---------(10)-|-10-----------|-(10)-----------|-----------------|
 |-----------------|--------------|----------------|-----------------|

|
 
 | PM----------|

| W H Q E E +Q Q Q Q E E E E E E E E
 
 |-----------------|--------------|----------------|-----------------|
 |-----------------|--------------|----------------|-----------------|
 |-----------------|--------------|----------------|-----------------|
 |-----------------|----------7-5-|--(5)--5--5--5--|-5-5-5-5-5-5-5-7-|
 |-----------------|----------5-3-|--(3)--3--3--3--|-3-3-3-3-3-3-3-5-|
 |-----------------|--------------|----------------|-----------------|

H.. +E Q Q E Q E
 
 |------------------|-13--10----------13b15-|
 |-13b15-------(13)-|---------13-11---------|
 |------------------|-----------------------|
 |------------------|-----------------------|
 |------------------|-----------------------|
 |------------------|-----------------------|

|
| W H Q E E
 
 |------------------|-----------------------|
 |------------------|-----------------------|
 |------------------|-----------------------|
 |------------------|---------------7--5----|
 |------------------|---------------5--3----|
 |------------------|-----------------------|

~~~~
+W +H. E E
 
 |-(13)-----------|-(13)\----------------|
 |----------------|----------------------|
 |----------------|-------------------10-|
 |----------------|----------------------|
 |----------------|----------------------|
 |----------------|----------------------|

|
 
 | PM------------|

| +Q Q Q Q E E E E E E E E
 
 |----------------|----------------------|
 |----------------|----------------------|
 |----------------|----------------------|
 |--(5)--5--5--5--|---5---5-5-5-5-5-5--7-|
 |--(3)--3--3--3--|---3---3-3-3-3-3-3--5-|
 |----------------|----------------------|

Guitar Solo
~~~~~~~
+Q H +E E +E +E E E +Q. E
 
 |----------------------------|---------------------------|
 |---------------------11b13==|=(11)r(11)-----------------|
 |-(10)-----------------------|-----------10--------------|
 |--------12------(12)--------|------------------------10-|
 |----------------------------|--------------12-(12)------|
 |----------------------------|---------------------------|

|
| E E Q E E Q E E Q Q. E
 
 |----------------------------|---------------------------|
 |----------------------------|---------------------------|
 |----------------------------|-------------------7-------|
 |---7--7--7--7-7---7---------|---7----7---7------7-----5-|
 |---5--5--5--5-5---5---------|---5----5---5------5-----3-|
 |----------------------------|---------------------------|

~~~~~~~~~~~ ~~
+Q E E E E Q +Q E E Q. E
 
 |------------------------|----------------------|
 |------------------------|----------------------|
 |------------------------|-------------------12-|
 |-(10)-------------------|----------------------|
 |--------12-11-10-8-10---|-(10)---8-------------|
 |------------------------|----------10-8\-------|

|
| +E E Q E Q E +E E Q Q E E
 
 |------------------------|----------------------|
 |------------------------|----------------------|
 |------------------------|----------------------|
 |--(5)-5--5-----5-5----5-|--(5)-5-5----5---5--7-|
 |--(3)-3--3-----3-3----3-|--(3)-3-3----3---3--5-|
 |------------------------|----------------------|

~~~~ ~~~~~
+H +E +E E E +E S +S E E Q E E
 
 |---------------------------------|------------------------------------------|
 |------------------------13-------|------------------------------------10s13-|
 |-(12)------(12)b14r(12)----12b14-|-(12)-12b14r(12)-12b14-12b14-12b14--------|
 |---------------------------------|------------------------------------------|
 |---------------------------------|------------------------------------------|
 |---------------------------------|------------------------------------------|

|
| +E E Q E Q. E E Q Q E E
 
 |---------------------------------|------------------------------------------|
 |---------------------------------|------------------------------------------|
 |---------------------------------|------------------------------------------|
 |--(7)-7-7----7-------7-----------|---7---7----------7-----------7------7--5-|
 |--(5)-5-5----5-------5-----------|---5---5----------5-----------5------5--3-|
 |---------------------------------|------------------------------------------|

~~~~ ~~~~
 
 |--3--| |---3---|

+Q E E E E E E E E E E E E E E +Q
 
 |--------10h13p10-------------10h13p==10-|-------------10h13p10--------------|
 |-(13)------------13b15-13b15------------|-13b15-13b15----------13b15-(13)---|
 |----------------------------------------|-----------------------------------|
 |----------------------------------------|-----------------------------------|
 |----------------------------------------|-----------------------------------|
 |----------------------------------------|-----------------------------------|

|
| +E E Q E Q E +E E Q Q E E
 
 |----------------------------------------|-----------------------------------|
 |----------------------------------------|-----------------------------------|
 |----------------------------------------|-----------------------------------|
 |--(5)-5--5--------5-----5----------5----|-(5)----5-----5-----5---------5--7-|
 |--(3)-3--3--------3-----3----------3----|-(3)----3-----3-----3---------3--5-|
 |----------------------------------------|-----------------------------------|
 |--3--| |---3---| |--3--|

S S S S E E E E E E E E E
 
 |-10h=13p10----10---------------------------|
 |-----------13----13p10-13p10------10-------|
 |-------------------------------12----12p10-|
 |-------------------------------------------|
 |-------------------------------------------|
 |-------------------------------------------|

|
| +E E Q E E Q
 
 |-------------------------------------------|
 |-------------------------------------------|
 |-------------------------------------------|
 |-(7)-----7-----7--------7----7-----7-------|
 |-(5)-----5-----5--------5----5-----5-------|
 |-------------------------------------------|

~~~~~~~~~
 
 |---3---| |--3--| |--3--| |---3---|

E E E E E E E E E E E E +W +W
 
 |-----------------------------------------|------------------|-------------------||
 |-----------------------------------------|------------------|-------------------||
 |-12p10------10---------------------------|------------------|-------------------||
 |---------12----12p10-12p10----10---------|------------------|-------------------||
 |---------------------------12----12s==10-|-(10)-------------|-(10)\-------------||
 |-----------------------------------------|------------------|-------------------||

|
| E E Q Q. E +E E Q E Q E +E E Q Q E E
 
 |-----------------------------------------|------------------|-------------------||
 |-----------------------------------------|------------------|-------------------||
 |----------------------7------------------|------------------|-------------------||
 |--7----7-----7--------7-------------5----|--(5)-5-5--5-5--5-|--(5)--5-5--5--5-7-||
 |--5----5-----5--------5-------------3----|--(3)-3-3--3-3--3-|--(3)--3-3--3--3-5-||
 |-----------------------------------------|------------------|-------------------||

Gtrs I, II
~
Q Q E Q E +E E Q E E E E +E E E E Q E E +E E E E E E E E
 
 |--------------|------------------|------------------|-------------------|
 |--------------|------------------|------------------|-------------------|
 |--------------|------------------|------------------|-------------------|
 |-7--7--7-7--7-|-(7)-7-7--7-7-7---|------------------|-----------------7-|
 |-5--5--5-5--5-|-(5)-5-5--5-5-5-3-|-(3)-3-2-0-3----3-|-(3)-3-2-0-3-3-3-5-|
 |--------------|------------------|------------------|-------------------|

~
+Q Q E Q E +E E Q E E E E +E E E E Q E E
 
 |----------------|------------------|------------------|
 |----------------|------------------|------------------|
 |----------------|------------------|------------------|
 |-(7)--7--7-7--7-|-(7)-7-7--7-7-7---|------------------|
 |-(5)--5--5-5--5-|-(5)-5-5--5-5-5-3-|-(3)-3-2-0-3----3-|
 |----------------|------------------|------------------|

~ ~
+E E E E Q E E +E E E E Q E E +E E E E q q
 
 |------------------|------------------|-----------------||
 |------------------|------------------|-----------------||
 |------------------|------------------|-----------------||
 |------------------|------------------|-----------------||
 |-(3)-3-2-0-3----3-|-(3)-3-2-0-3----3-|-(3)-3-2-0-3--3--||
 |------------------|------------------|-----------------||

Verse 3
PM| PM| PM PM| PM| PM| PM| PM PM| PM|
[E] [E] [E] [E] [E] [E] [E] [E] [E] [E] [E] [E] [E] [E] [E] [E] [E] [E] [E] [E] [E] [E] [E] [E] [E] [E] [E] [E] [E] [E] [E] [E]  
 
 |-----------------|-----------------|-----------------|-----------------|
 |-----------------|-----------------|-----------------|-----------------|
 |-----7-----7---7-|-----7-----7-7-7-|-----7-----7---7-|-----7-----7-7-5-|
 |-----7-----7---7-|-----7-----7-7-7-|-----8-----8---8-|-----8-----8-8-5-|
 |-5-5---5-5---5---|-5-5---5-5-------|-5-5---5-5---5---|-5-5---5-5-------|
 |-----------------|-----------------|-----------------|-----------------|

PM PM| PM PM| PM| PM| PM| PM|
[+E] [E] [E] [E] [E] [E] [E] [E] [E] [E] [E] [E] [E] [E] [E] [E] [E] [E] [E] [E] [E] [E] [E] [E] [E] [E] [E] [E] [+B]  
 
 |-------------------|-----------------|-----------------|----------------|
 |-------------------|-----------------|-----------------|-3-3-2-2-(2)----|
 |-(5)---5-----5---5-|-----5-----5-5-5-|-----2-----2-----|-2-2-2-2-(2)----|
 |-(5)---5-----5---5-|-----5-----5-5-5-|-----2-----2-----|----------------|
 |-----3---3-3---3---|-3-3---3-3-------|-0-0---0-0---0-0-|----------------|
 |-------------------|-----------------|-----------------|----------------|

PM| PM| PM PM| PM| PM| PM| PM PM| PM|
[E] [E] [E] [E] [E] [E] [E] [E] [E] [E] [E] [E] [E] [E] [E] [E] [E] [E] [E] [E] [E] [E] [E] [E] [E] [E] [E] [E] [E] [E] [E] [E]  
 
 |-----------------|-----------------|-----------------|-----------------|
 |-----------------|-----------------|-----------------|-----------------|
 |-----7-----7---7-|-----7-----7-7-7-|-----7-----7---7-|-----7-----7-7-5-|
 |-----7-----7---7-|-----7-----7-7-7-|-----8-----8---8-|-----8-----8-8-5-|
 |-5-5---5-5---5---|-5-5---5-5-------|-5-5---5-5---5---|-5-5---5-5-------|
 |-----------------|-----------------|-----------------|-----------------|

PM PM| PM PM| PM|
+E E E E E E E E E E E E E E E E +H.. E +H.. E
 
 |-------------------|-----------------|--------------|--------------|
 |-------------------|-----------------|--------------|--------------|
 |-(5)---5-----5---5-|-----5-----5-5-2-|-(2)--------2-|-(2)--------2-|
 |-(5)---5-----5---5-|-----5-----5-5-2-|-(2)--------2-|-(2)--------2-|
 |-----3---3-3---3---|-3-3---3-3-----0-|-(0)--------0-|-(0)--------0-|
 |-------------------|-----------------|--------------|--------------|

PM----|
+H.. E +E E E E E E E E
 
 |--------------|-------------------|
 |--------------|-------------------|
 |-(2)--------2-|-(2)---------------|
 |-(2)--------2-|-(2)-2-2-2-2-7-5-7-|
 |-(0)--------0-|-(0)-0-0-0-0-5-3-5-|
 |--------------|-------------------|

Chorus
 
 PM--------|

H Q E E +H.. E +H.. E +E E E E E E E E
 
 |-------------|--------------|--------------|-------------------|
 |-------------|--------------|--------------|-------------------|
 |-------------|--------------|--------------|-------------------|
 |---------7-5-|-(5)----------|--------------|-----------3-----7-|
 |---------5-3-|-(3)--------5-|-(5)--------3-|-(3)-3-3-5---5-3-5-|
 |-------------|------------3-|-(3)--------1-|-(1)---------------|
 PM--------| PM--------|

+H.. E +E E E E E E E E +H.. E +E E E E E E E E
 
 |--------------|-------------------|--------------|-------------------|
 |--------------|-------------------|--------------|-------------------|
 |--------------|-------------------|--------------|-------------------|
 |-(7)--------5-|-(5)---------------|--------------|-----------------7-|
 |-(5)--------3-|-(3)---3---3---3-5-|-(5)--------3-|-(3)-3-3-3-3-3-3-5-|
 |--------------|-----5---5---5---3-|-(3)--------1-|-(1)-1-1-1-1-1-1---|
 PM--------|

H Q E E +H.. E +H.. E +E E E E E E E E
 
 |-------------|--------------|--------------|-------------------|
 |-------------|--------------|--------------|-------------------|
 |-------------|--------------|--------------|-------------------|
 |---------7-5-|-(5)----------|--------------|-----------3-----7-|
 |---------5-3-|-(3)--------5-|-(5)--------3-|-(3)-3-3-5---5-3-5-|
 |-------------|------------3-|-(3)--------1-|-(1)---------------|

D.S. al Coda
 
 PM----------|

+H.. E +H.. E +E E E E E E E E
 
 |--------------|--------------|-------------------|
 |--------------|--------------|-------------------|
 |--------------|--------------|-------------------|
 |-(7)--------5-|-(5)----------|-------------------|
 |-(5)--------3-|-(3)--------5-|-(5)---------------|
 |--------------|------------3-|-(3)-1-3-1-3-1-3-1-|

Out-Chorus
&
Gtr I Gtrs I, II
W W +H. Q W +H. Q
 
 |-3----------||----------|-------------|----------|-------------|
 |-3----------||----------|-------------|----------|-------------|
 |-4----------||-5--------|-(5)------5--|----------|-------------|
 |-5----------||-5--------|-(5)------5--|-5--------|-(5)------5--|
 |-5----------||-3--------|-(3)------3--|-5--------|-(5)------5--|
 |-3----------||----------|-------------|-3--------|-(3)------3--|

|
| Gtr II
| Q H. W W W W
 
 |-0----------||----------|-------------|----------|-------------|
 |----3-------||----------|-------------|----------|-------------|
 |------------||----------|-------------|----------|-------------|
 |------------||----------|-------------|----------|-------------|
 |------------||----------|-------------|----------|-------------|
 |------------||----------|-------------|----------|-------------|

W +H. Q W +H. Q
 
 |----------|-------------|----------|-------------|
 |----------|-------------|----------|-------------|
 |-5--------|-(5)------5--|----------|-------------|
 |-5--------|-(5)------5--|-5--------|-(5)------5--|
 |-3--------|-(3)------3--|-5--------|-(5)------5--|
 |----------|-------------|-3--------|-(3)------3--|
 PM----------------------------| PM----------------------------|

E E E E E E E E E E E E E E E E E E E E E E E E E E E E E E Q
 
 |-----------------|-----------------|-----------------|----------------|
 |-----------------|-----------------|-----------------|----------------|
 |-----------------|-----------------|-----------------|----------------|
 |-5-5-5-5-5-5-5-5-|-5-5-5-5-5-5-5-5-|-----------------|----------------|
 |-3-3-3-3-3-3-3-3-|-3-3-3-3-3-3-3-3-|-5-5-5-5-5-5-5-5-|-5-5-5-5-5-5-5--|
 |-----------------|-----------------|-3-3-3-3-3-3-3-3-|-3-3-3-3-3-3-3--|
 PM---------------------------------------------------------------|

E E E E E E E E E E E E E E Q E E E E E E E E E E E E E E Q
 
 ||------------------|----------------|-----------------|------------------||
 ||o-----------------|----------------|-----------------|-----------------o||
 ||------------------|----------------|-----------------|------------------||
 ||--5-5-5-5-5-5-5-5-|-5-5-5-5-5-5-5--|-----------------|------------------||
 ||o-3-3-3-3-3-3-3-3-|-3-3-3-3-3-3-3--|-5-5-5-5-5-5-5-5-|-5-5-5-5-5-5-5---o||
 ||------------------|----------------|-3-3-3-3-3-3-3-3-|-3-3-3-3-3-3-3----||
 PM---------------------------------------------------------------|

E E E E E E E E E E E E E E Q E E E E E E E E E E E E E E E E
 
 |-----------------|----------------|-----------------|-----------------||
 |-----------------|----------------|-----------------|-----------------||
 |-----------------|----------------|-----------------|-----------------||
 |-5-5-5-5-5-5-5-5-|-5-5-5-5-5-5-5--|-----------------|---------------7-||
 |-3-3-3-3-3-3-3-3-|-3-3-3-3-3-3-3--|-5-5-5-5-5-5-5-5-|-5-5-5-5-5-5-5-5-||
 |-----------------|----------------|-3-3-3-3-3-3-3-3-|-3-3-3-3-3-3-3---||

Outro
H.=H Slower Q=120
Gtr I
~~~~~
 
 |------6-------| |------6-------|

W H S S S S S S S S S S S S
 
 |-----------------:----------------------------------------------:
 |-----------------:-13b15----10h13p10----------10h13p10----------:
 |-----------------:-------------------10h12p10----------10h12p10-:
 |-----------------:----------------------------------------------:
 |-----------------:----------------------------------------------:
 |-----------------:----------------------------------------------:

|
| Gtr I
| |3| |3|
| +Q. E Q E Q E W
 
 |-----------------:----------------------------------------------:
 |-----------------:----------------------------------------------:
 |-----------------:----------------------------------------------:
 |-(7)---7-5-7-5-7-:--5-------------------------------------------:
 |-(5)---5-3-5-3-5-:--5-------------------------------------------:
 |-----------------:--3-------------------------------------------:

~~~~~~~~
 
 |-------6-------| |------6-------| |------6-------|

S S S S S S S S S S S S S S S S S S E +E W
 
 |-----------------------------------------------------------------||------*|
 |-10h=13p10----------10h13p10----------10h13p10-------------------||------*|
 |-----------10h12p10----------10h12p10----------10h12p10s12-(12)\-||------*|
 |-----------------------------------------------------------------||-5----*|
 |-----------------------------------------------------------------||-5----*|
 |-----------------------------------------------------------------||-3----*|

|
| +W W
 
 |-----------------------------------------------------------------||------*|
 |-----------------------------------------------------------------||------*|
 |-----------------------------------------------------------------||------*|
 |-(5)-------------------------------------------------------------||-5----*|
 |-(5)-------------------------------------------------------------||-5----*|
 |-(3)-------------------------------------------------------------||-3----*|

Duration Legend
 
 ---------------
 W - whole; H - half; Q - quarter; E - 8th; S - 16th; T - 32nd; X - 64th; a - acciaccatura

+ - note tied to previous; . - note dotted; .. - note double dotted
Uncapitalized letters represent notes that are staccato (1/2 duration)
Irregular groupings are notated above the duration line
Duration letters will always appear directly above the note/fret number it represents the
duration for. Duration letters with no fret number below them represent rests. Multi-
bar rests are notated in the form Wxn, where n is the number of bars to rest for. Low
melody durations appear below the staff
Tablature Legend
 
 ----------------

h - hammer-on
p - pull-off
b - bend
pb - pre-bend
r - bend release (if no number after the r, then release immediately)
/\ - slide into or out of (from/to "nowhere")
s - legato slide
S - shift slide
- natural harmonic
(n) - artificial harmonic
n(n) - tapped harmonic
~ - vibrato
tr - trill
T - tap
TP - trem. picking
PM - palm muting
\n/ - tremolo bar dip; n = amount to dip
\n - tremolo bar down
n/ - tremolo bar up
/n\ - tremolo bar inverted dip
= - hold bend; also acts as connecting device for hammers/pulls
- volume swell (louder/softer)
x - on rhythm slash represents muted slash
o - on rhythm slash represents single note slash
Misc Legend
 
 -----------

| - bar
|| - double bar
||o - repeat start
o|| - repeat end
*| - double bar (ending)
: - bar (freetime)
$ - Segno
& - Coda
Tempo markers - = BPM(8/16=s8/s16), where s8 = swing 8ths, s16 = swing 16ths

Important: The song above is NOT stored on the Chordie server. The original song is hosted at www.guitaretab.com. Chordie works as a search engine and provides on-the-fly formatting. Chordie does not index songs against artists'/composers' will. To remove this song please click here.

Text color:
Chord color:
Chord grids: 
Font size:    
Page size: 

E
Rate #1 of 3 versions

Jango Player

Login - add to songbook

SHARE PAGE  



You need to log in to post comments