Guitar Tabs, Chords and Lyrics
Major upgrade!! After one year development the new version of Chordie is now online! Please give feedback.


Safe Home  Anthrax

Gtr I (Db Ab Db Gb Bb Eb) - 'Untitled'
Gtr II (Db Ab Db Gb Bb Eb) - 'Untitled'
Gtr III (Db Ab Db Gb Bb Eb) - 'Untitled'
Gtr IV (Db Ab Db Gb Bb Eb) - 'Untitled'
Gtr V (Db Ab Db Gb Bb Eb) - 'Untitled'
Intro
Q=75
[G] [Dmaj7/Bm]  
[3/4] Gtr I[4/4]
E S S +S S S S E E W
 
 |-1--------------------|----------------------------------|
 |----------------------|-^3-------------------------------|
 |-7--7-7-(7)-7-7-7-6-6-|-^4-------------------------------|
 |-9--9-9-(9)-9-9-9-7-7-|-^4-------------------------------|
 |-5--5-5-(5)-5-5-5-5-5-|-^2-------------------------------|
 |-5--5-5-(5)-5-5-5-4-4-|----------------------------------|

|
| Gtr II
| E S S +S S S S E E W
 
 |----------------------|----------------------------------|
 |----------------------|-^3-------------------------------|
 |-7--7-7-(7)-7-7-7-6-6-|-^4-------------------------------|
 |-9--9-9-(9)-9-9-9-7-7-|-^4-------------------------------|
 |-5--5-5-(5)-5-5-5-5-5-|-^2-------------------------------|
 |-5--5-5-(5)-5-5-5-4-4-|----------------------------------|

|
| Gtr IV
| H. S S S S S S S S S S S S S S S S
 
 |----------------------|----------------------------------|
 |----------------------|----------------------------------|
 |----------------------|----------------------------------|
 |----------------------|----------------------------------|
 |----------------------|--2-2-2-2-2-2-2-2-2-2-2-2-2-2-2-2-|
 |----------------------|----------------------------------|

+W[B5]
 
 |-----------------------------------||
 |-(3)-------------------------------||
 |-(4)-------------------------------||
 |-(4)-------------------------------||
 |-(2)-------------------------------||
 |-----------------------------------||

|
| Gtrs II, III
| +H. S S E
 
 |-----------------------------------||
 |-(3)-------------------------------||
 |-(4)-------------------------------||
 |-(4)-----------------------9---9---||
 |-(2)-----------------------9---9---||
 |---------------------------9---9---||

|
| S S S S S S S S S S S S S S S S
 
 |-----------------------------------||
 |-----------------------------------||
 |-----------------------------------||
 |-----------------------------------||
 |--2--2-2-2-2-2-2-2-2-2-2-2-2-2-2-2-||
 |-----------------------------------||

Verse
$
[E5]Gtrs II, III[D5E5G5E5] [D5] [E5G5E5] [D5E5G5E5D5E5G5E5D5]
S S S S S S S S S S S S S S S S S S S S S S S S S S S S S S S S
 
 ||----------------------------------|----------------------------------||
 ||o---------------------------------|---------------------------------o||
 ||----------------------------------|----------------------------------||
 ||--2---2---2---2-0-2-5-2---2---2-0-|-2-5-2---2---2-0-2-5-2-0-2-5-2-0--||
 ||o-2---2---2---2-0-2-5-2---2---2-0-|-2-5-2---2---2-0-2-5-2-0-2-5-2-0-o||
 ||--2---2---2---2-0-2-5-2---2---2-0-|-2-5-2---2---2-0-2-5-2-0-2-5-2-0--||

[E5]S S S S S S S [D5E5G5E5]S S S S S S S S [D5]S [E5A5E5]S S S S S S S [D5E5G5E5D5E5A5E5D5]S S S S S S S S S
 
 ||----------------------------------|----------------------------------||
 ||o---------------------------------|---------------------------------o||
 ||----------------------------------|----------------------------------||
 ||--2---2---2---2-0-2-5-2---2---2-0-|-2-7-2---2---2-0-2-5-2-0-2-7-2-0--||
 ||o-2---2---2---2-0-2-5-2---2---2-0-|-2-7-2---2---2-0-2-5-2-0-2-7-2-0-o||
 ||--2---2---2---2-0-2-5-2---2---2-0-|-2-7-2---2---2-0-2-5-2-0-2-7-2-0--||

Pre-Chorus
[Bm]Gtrs I, II[G] [Bm] [G]
W W W W
 
 |-----------|-----------|-----------|-------|
 |-^3--------|-----------|-^3--------|-------|
 |-^4--------|-^7--------|-^4--------|-^7----|
 |-^4--------|-^9--------|-^4--------|-^9----|
 |-^2--------|-^5--------|-^2--------|-^5----|
 |-----------|-^5--------|-----------|-^5----|

[Bm]S S S S S S S S S S S S S S S S [G]S S S S S S S S S S S S S S S S
 
 ||----------------------------------|----------------------------------||
 ||o-3-3-3-3-3-3-3-3-3-3-3-3-3-3-3-3-|---------------------------------o||
 ||--4-4-4-4-4-4-4-4-4-4-4-4-4-4-4-4-|-7-7-7-7-7-7-7-7-7-7-7-7-7-7-7-7--||
 ||--4-4-4-4-4-4-4-4-4-4-4-4-4-4-4-4-|-9-9-9-9-9-9-9-9-9-9-9-9-9-9-9-9--||
 ||o-2-2-2-2-2-2-2-2-2-2-2-2-2-2-2-2-|-5-5-5-5-5-5-5-5-5-5-5-5-5-5-5-5-o||
 ||----------------------------------|-5-5-5-5-5-5-5-5-5-5-5-5-5-5-5-5--||

[E5] [D5E5F#E5D5E5F#E5D5] [G] [Dmaj7/F#] 
Gtrs II, III [3/4] Gtrs I, II
S S S S S S S S S S S S S S S S E S S +S S S S E E
 
 |---------------------------------|---------------------||
 |---------------------------------|---------------------||
 |---------------------------------|-7-7-7-(7)-7-7-7-6-6-||
 |-2-2-2-2-2-2-2-0-2-4-2-0-2-4-2-0-|-9-9-9-(9)-9-9-9-7-7-||
 |-2-2-2-2-2-2-2-0-2-4-2-0-2-4-2-0-|-5-5-5-(5)-5-5-5-5-5-||
 |-2-2-2-2-2-2-2-0-2-4-2-0-2-4-2-0-|-5-5-5-(5)-5-5-5-4-4-||

Chorus
[Bm] [G] [Dmaj7/F#Bm] [E5] [D5E5F#E5D5] [G] [Dmaj7/F#] 
[4/4] Gtrs II, III [3/4] Gtrs I, II
W H H H S S S S S S S S E S S +S S S S E E
 
 |-----------|-------------|-----------------------|----------------------|
 |-^3--------|-------------|-^3--------------------|----------------------|
 |-^4--------|-^7----^6----|-^4--------------------|-7-7-7-(7)-7-7-7-6-6--|
 |-^4--------|-^9----^7----|-^4----2-2-2-0-2-4-2-0-|-9-9-9-(9)-9-9-9-7-7--|
 |-^2--------|-^5----^5----|-^2----2-2-2-0-2-4-2-0-|-5-5-5-(5)-5-5-5-5-5--|
 |-----------|-^5----^4----|-------2-2-2-0-2-4-2-0-|-5-5-5-(5)-5-5-5-4-4--|

To Coda
[Bm] [G] [Dmaj7/Bm] 
[4/4] Gtr I[3/4]
S S S S S S S S S S S S S S S S S S S S S S S S E E
 
 |---------------------------------|----------------------|
 |-3-3-3-3-3-3-3-3-3-3-3-3-3-3-3-3-|----------------------|
 |-4-4-4-4-4-4-4-4-4-4-4-4-4-4-4-4-|-7--7-7-7-7-7-7-7-6-6-|
 |-4-4-4-4-4-4-4-4-4-4-4-4-4-4-4-4-|-9--9-9-9-9-9-9-9-7-7-|
 |-2-2-2-2-2-2-2-2-2-2-2-2-2-2-2-2-|-5--5-5-5-5-5-5-5-5-5-|
 |---------------------------------|-5--5-5-5-5-5-5-5-4-4-|

|
| Gtr II
| S S S S S S S S S S S S S S S S S S S S S S S S E E
 
 |---------------------------------|----------------------|
 |-3-3-3-3-3-3-3-3-3-3-3-3-3-3-3-3-|----------------------|
 |-4-4-4-4-4-4-4-4-4-4-4-4-4-4-4-4-|-7--7-7-7-7-7-7-7-6-6-|
 |-4-4-4-4-4-4-4-4-4-4-4-4-4-4-4-4-|-9--9-9-9-9-9-9-9-7-7-|
 |-2-2-2-2-2-2-2-2-2-2-2-2-2-2-2-2-|-5--5-5-5-5-5-5-5-5-5-|
 |---------------------------------|-5--5-5-5-5-5-5-5-4-4-|

|
| Gtr IV
| W H.
 
 |---------------------------------|----------------------|
 |---------------------------------|----------------------|
 |---------------------------------|----------------------|
 |---------------------------------|----------------------|
 |---------------------------------|----------------------|
 |---------------------------------|----------------------|

D.S. al Coda
[B5]  
[4/4] W
 
 |------------------------------------||
 |-^3---------------------------------||
 |-^4---------------------------------||
 |-^4---------------------------------||
 |-^2---------------------------------||
 |------------------------------------||

|
| Gtrs II, III
| H. S S E
 
 |------------------------------------||
 |-^3---------------------------------||
 |-^4---------------------------------||
 |-^4------------------------9---9----||
 |-^2------------------------9---9----||
 |---------------------------9---9----||

|
| S S S S S S S S S S S S S S S S
 
 |------------------------------------||
 |------------------------------------||
 |------------------------------------||
 |------------------------------------||
 |--2--2-2-2-2-2-2-2-2-2-2-2-2-2-2-2--||
 |------------------------------------||

Break
&
[Bm]Gtr I[G]
W H +E S S S S S S
 
 |-----------|---------------3-------|
 |-^3--------|-------------0---0---0-|
 |-^4--------|-^7----(7)-4-------4---|
 |-^4--------|-^9----(9)-------------|
 |-^2--------|-^5----(5)-------------|
 |-----------|-^5----(5)-------------|

|
| Gtr II
| W W
 
 |-----------|-----------------------|
 |-^3--------|-----------------------|
 |-^4--------|-^7--------------------|
 |-^4--------|-^9--------------------|
 |-^2--------|-^5--------------------|
 |-----------|-^5--------------------|

[Bm] H +E S S S S S S [G] H +E S S S S S S
 
 |---------------7-------|---------------3---------|
 |-^3----(3)---0---0---0-|-------------0---0---0---|
 |-^4----(4)-4-------4---|-^7----(7)-4-------4-----|
 |-^4----(4)-------------|-^9----(9)---------------|
 |-^2----(2)-------------|-^5----(5)---------------|
 |-----------------------|-^5----(5)---------------|

|
| W W
 
 |-----------------------|-------------------------|
 |-^3--------------------|-------------------------|
 |-^4--------------------|-^7----------------------|
 |-^4--------------------|-^9----------------------|
 |-^2--------------------|-^5----------------------|
 |-----------------------|-^5----------------------|

H=H
[Bm]Gtrs I, II[G] [Bm] [G]
W W W W
 
 |-----------|-----------|-----------|-------|
 |-^3--------|-----------|-^3--------|-------|
 |-^4--------|-^7--------|-^4--------|-^7----|
 |-^4--------|-^9--------|-^4--------|-^9----|
 |-^2--------|-^5--------|-^2--------|-^5----|
 |-----------|-^5--------|-----------|-^5----|

Q=79
[Bm]S S S S S S S S S S S S S S S S S S S S S S S S S S S S S S S S
 
 |---------------------------------|---------------------------------||
 |-3-3-3-3-3-3-3-3-3-3-3-3-3-3-3-3-|-3-3-3-3-3-3-3-3-3-3-3-3-3-3-3-3-||
 |-4-4-4-4-4-4-4-4-4-4-4-4-4-4-4-4-|-4-4-4-4-4-4-4-4-4-4-4-4-4-4-4-4-||
 |-4-4-4-4-4-4-4-4-4-4-4-4-4-4-4-4-|-4-4-4-4-4-4-4-4-4-4-4-4-4-4-4-4-||
 |-2-2-2-2-2-2-2-2-2-2-2-2-2-2-2-2-|-2-2-2-2-2-2-2-2-2-2-2-2-2-2-2-2-||
 |---------------------------------|---------------------------------||

Breakdown
[Bm]Gtrs I, II
S S S S S S S S S S S S S S S S
 
 |---------------------------------------------|
 |-3-3---3--3-3---3---3-3-3--3---3-3-3--3--3-3-|
 |-4-4---4--4-4---4---4-4-4--4---4-4-4--4--4-4-|
 |-4-4---4--4-4---4---4-4-4--4---4-4-4--4--4-4-|
 |-2-2---2--2-2---2---2-2-2--2---2-2-2--2--2-2-|
 |---------------------------------------------|

|
| Gtr III
| E S E +S S E +S S E +S S S
 
 |---------------------------------------------|
 |---------------------------------------------|
 |---------------------------------------------|
 |----------7----(7)---------------------------|
 |------/9------------9-7---(7)--9-5---(5)-7-2-|
 |---------------------------------------------|

|
| Gtr V
| E S E +S S E +S S E +S S S
 
 |---------------------------------------------|
 |---------10---(10)---------------------------|
 |-----/11-----------11-9---(9)-11-7---(7)-9-4-|
 |---------------------------------------------|
 |---------------------------------------------|
 |---------------------------------------------|

[Asus2add4] S S S S S S S S S S S S S S S S
 
 |-----------------------------------------------|
 |--3--3---3--3-3---3---3-3-3--3---3-3-3--3--3-3-|
 |--4--4---4--4-4---4---4-4-4--4---4-4-4--4--4-4-|
 |--2--2---2--2-2---2---2-2-2--2---2-2-2--2--2-2-|
 |--0--0---0--0-0---0---0-0-0--0---0-0-0--0--0-0-|
 |-----------------------------------------------|

|
| +E S E +S S E +S S E +S S S
 
 |-----------------------------------------------|
 |-----------------------------------------------|
 |-----------------------------------------------|
 |------------7----(7)---------------------------|
 |-(2)----/9------------9-7---(7)--9-5---(5)-7---|
 |---------------------------------------------5-|

|
| +E S E +S S E +S S E +S S S
 
 |-----------------------------------------------|
 |-----------10---(10)---------------------------|
 |-(4)---/11-----------11-9---(9)-11-7---(7)-9---|
 |---------------------------------------------5-|
 |-----------------------------------------------|
 |-----------------------------------------------|

[G] S S S S S S S S S S S S S S S S
 
 |-----------------------------------------------|
 |-----------------------------------------------|
 |--7--7---7--7-7---7---7-7-7--7---7-7-7--7--7-7-|
 |--9--9---9--9-9---9---9-9-9--9---9-9-9--9--9-9-|
 |--5--5---5--5-5---5---5-5-5--5---5-5-5--5--5-5-|
 |--5--5---5--5-5---5---5-5-5--5---5-5-5--5--5-5-|

|
| +E S E +S S E +S S E +S S S
 
 |-----------------------------------------------|
 |-----------------------------------------------|
 |-----------------------------------------------|
 |------------7----(7)---------------------------|
 |--------/9------------9-7---(7)--9-5---(5)-7---|
 |-(5)-----------------------------------------4-|

|
| +E S E +S S E +S S E +S S S
 
 |-----------------------------------------------|
 |-----------10---(10)---------------------------|
 |-------/11-----------11-9---(9)-11-7---(7)-9---|
 |-(5)-----------------------------------------4-|
 |-----------------------------------------------|
 |-----------------------------------------------|

[D5/F#] S S S S S S S S S S S S S S S S
 
 |---------------------------------------------------|
 |---------------------------------------------------|
 |--7--7---7--7-7---7---7--7-7-7---7--7-7---7---7--7-|
 |--7--7---7--7-7---7---7--7-7-7---7--7-7---7---7--7-|
 |--5--5---5--5-5---5---5--5-5-5---5--5-5---5---5--5-|
 |--4--4---4--4-4---4---4--4-4-4---4--4-4---4---4--4-|

|
| +E S E +S E E S E +S E
 
 |---------------------------------------------------|
 |---------------------------------------------------|
 |---------------------------------------------------|
 |------------7----(7)----------------7----(7)-------|
 |--------/9------------9\--------/9------------9\---|
 |-(4)-----------------------------------------------|

|
| +E S E +S E E S E +S E
 
 |---------------------------------------------------|
 |-----------10---(10)---------------10---(10)-------|
 |-------/11-----------11\-------/11-----------11\---|
 |-(4)-----------------------------------------------|
 |---------------------------------------------------|
 |---------------------------------------------------|

[Bm]S S S S S S S S S S S S S S S S
 
 |---------------------------------------------|
 |-3-3---3--3-3---3---3-3-3--3---3-3-3--3--3-3-|
 |-4-4---4--4-4---4---4-4-4--4---4-4-4--4--4-4-|
 |-4-4---4--4-4---4---4-4-4--4---4-4-4--4--4-4-|
 |-2-2---2--2-2---2---2-2-2--2---2-2-2--2--2-2-|
 |---------------------------------------------|

|
| E S E +S S E +S S E +S S S
 
 |---------------------------------------------|
 |---------------------------------------------|
 |---------------------------------------------|
 |----------7----(7)---------------------------|
 |------/9------------9-7---(7)--9-5---(5)-7-2-|
 |---------------------------------------------|

|
| E S E +S S E +S S E +S S S
 
 |---------------------------------------------|
 |---------10---(10)---------------------------|
 |-----/11-----------11-9---(9)-11-7---(7)-9-4-|
 |---------------------------------------------|
 |---------------------------------------------|
 |---------------------------------------------|

[D5/C#] S S S S S S S S S S S S S S S S
 
 |-------------------------------------------------------|
 |-------------------------------------------------------|
 |-------------------------------------------------------|
 |-12--12--12-12-12--12--12-12-12-12--12-12-12-12--12-12-|
 |-12--12--12-12-12--12--12-12-12-12--12-12-12-12--12-12-|
 |-11--11--11-11-11--11--11-11-11-11--11-11-11-11--11-11-|

|
| +E S E +S S E +S S E +S S S
 
 |-------------------------------------------------------|
 |-------------------------------------------------------|
 |-------------------------------------------------------|
 |-------------7-----(7)---------------------------------|
 |-(2)-----/9-------------9--7----(7)--9--5----(5)--7----|
 |-----------------------------------------------------5-|

|
| +E S E +S S E +S S E +S S S
 
 |-------------------------------------------------------|
 |------------10----(10)---------------------------------|
 |-(4)----/11------------11--9----(9)-11--7----(7)--9----|
 |-----------------------------------------------------5-|
 |-------------------------------------------------------|
 |-------------------------------------------------------|

[G] S S S S S S S S S S S S S S S S
 
 |-----------------------------------------------|
 |-----------------------------------------------|
 |--7--7---7--7-7---7---7-7-7--7---7-7-7--7--7-7-|
 |--9--9---9--9-9---9---9-9-9--9---9-9-9--9--9-9-|
 |--5--5---5--5-5---5---5-5-5--5---5-5-5--5--5-5-|
 |--5--5---5--5-5---5---5-5-5--5---5-5-5--5--5-5-|

|
| +E S E +S S E +S S E +S S S
 
 |-----------------------------------------------|
 |-----------------------------------------------|
 |-----------------------------------------------|
 |------------7----(7)---------------------------|
 |--------/9------------9-7---(7)--9-5---(5)-7---|
 |-(5)-----------------------------------------4-|

|
| +E S E +S S E +S S E +S S S
 
 |-----------------------------------------------|
 |-----------10---(10)---------------------------|
 |-------/11-----------11-9---(9)-11-7---(7)-9---|
 |-(5)-----------------------------------------4-|
 |-----------------------------------------------|
 |-----------------------------------------------|

[D5/F#] S S S S S S S S S S S S S S S S
 
 |---------------------------------------------------||
 |---------------------------------------------------||
 |--7--7---7--7-7---7---7--7-7-7---7--7-7---7---7--7-||
 |--7--7---7--7-7---7---7--7-7-7---7--7-7---7---7--7-||
 |--5--5---5--5-5---5---5--5-5-5---5--5-5---5---5--5-||
 |--4--4---4--4-4---4---4--4-4-4---4--4-4---4---4--4-||

|
| +E S E +S E E S E +S E
 
 |---------------------------------------------------||
 |---------------------------------------------------||
 |---------------------------------------------------||
 |------------7----(7)----------------7----(7)-------||
 |--------/9------------9\--------/9------------9\---||
 |-(4)-----------------------------------------------||

|
| +E S E +S E E S E +S E
 
 |---------------------------------------------------||
 |-----------10---(10)---------------10---(10)-------||
 |-------/11-----------11\-------/11-----------11\---||
 |-(4)-----------------------------------------------||
 |---------------------------------------------------||
 |---------------------------------------------------||

Guitar Solo
[Bm]Gtrs I, II
S S S S S S S S S S S S S S S S
 
 |----------------------------------------------|
 |--3-3-3-3-3-3-3-3--3----3--3-3--3--3--3--3----|
 |--4-4-4-4-4-4-4-4--4----4--4-4--4--4--4--4----|
 |--4-4-4-4-4-4-4-4--4----4--4-4--4--4--4--4----|
 |--2-2-2-2-2-2-2-2--2----2--2-2--2--2--2--2----|
 |----------------------------------------------|

|
| Gtr V
| ~~
| H +S S e S S S S
 
 |--------------------------------9-------------|
 |--------------------------10---10----10-12b14-|
 |----------------------/11---------11----------|
 |-/9---------------(9)-------------------------|
 |----------------------------------------------|
 |----------------------------------------------|

[Asus2add4] S S S S S S S S S S S S S S S S
 
 |---------------------------------------------------|
 |---3--3-3--3-------3--3---3----3---3-3-3-3-3-3-3-3-|
 |---4--4-4--4-------4--4---4----4---4-4-4-4-4-4-4-4-|
 |---2--2-2--2-------2--2---2----2---2-2-2-2-2-2-2-2-|
 |---0--0-0--0-------0--0---0----0---0-0-0-0-0-0-0-0-|
 |---------------------------------------------------|

|
| ~~
| +E. S +E +S +S H
 
 |---------------------------------------------------|
 |-(12)-----12b15==(12)---(12)r(12)-10---------------|
 |---------------------------------------------------|
 |---------------------------------------------------|
 |---------------------------------------------------|
 |---------------------------------------------------|

[G] S S S S S S S S S S S S S S S S
 
 |-----------------------------------------------|
 |-----------------------------------------------|
 |--7------7--7--7--7--7--7--7--7--7-7-7-7-7-7-7-|
 |--9------9--9--9--9--9--9--9--9--9-9-9-9-9-9-9-|
 |--5------5--5--5--5--5--5--5--5--5-5-5-5-5-5-5-|
 |--5------5--5--5--5--5--5--5--5--5-5-5-5-5-5-5-|

|
| ~~~
| S S S S S S S S H
 
 |-14-----14-14-14-14-14-14-14-14----------------|
 |-17b19==17-17-17-17-17-17-17-17r---------------|
 |-----------------------------------------------|
 |-----------------------------------------------|
 |-----------------------------------------------|
 |-----------------------------------------------|

[D5/F#] S S S S S S S S S S S S S S S S
 
 |-------------------------------------------------------------------------|
 |-------------------------------------------------------------------------|
 |--7-----7--7-----7--7-----7--7-----7--7-----7--7-----7--7-----7--7-----7-|
 |--7-----7--7-----7--7-----7--7-----7--7-----7--7-----7--7-----7--7-----7-|
 |--5-----5--5-----5--5-----5--5-----5--5-----5--5-----5--5-----5--5-----5-|
 |--4-----4--4-----4--4-----4--4-----4--4-----4--4-----4--4-----4--4-----4-|

|
| S S S S S S S S S S S S S S S S
 
 |-------17-------17-------17-------17-------17-------17-------17-------17-|
 |-17b19----17b19----17b19----17b19----17b19----17b19----17b19----17b19----|
 |-------------------------------------------------------------------------|
 |-------------------------------------------------------------------------|
 |-------------------------------------------------------------------------|
 |-------------------------------------------------------------------------|

[Bm]S S S S S S S S S S S S S S S S
 
 |-----------------------------------------------------|
 |-3---3---3-3-3---3---3---3---3---3-3-3---3-3-3---3---|
 |-4---4---4-4-4---4---4---4---4---4-4-4---4-4-4---4---|
 |-4---4---4-4-4---4---4---4---4---4-4-4---4-4-4---4---|
 |-2---2---2-2-2---2---2---2---2---2-2-2---2-2-2---2---|
 |-----------------------------------------------------|

|
| T T T T E T T T T T T T T T T E T T E T T T T
 
 |-----------------------------------------------------|
 |-x-x-x-x-7---x-x-x-x-x-x-x-x-x-x-7---x-x-7---x-x-x-x-|
 |-x-x-x-x-7---x-x-x-x-x-x-x-x-x-x-7---x-x-7---x-x-x-x-|
 |-----------------------------------------------------|
 |-----------------------------------------------------|
 |-----------------------------------------------------|

[D5/C#] S S S S S S S S S S S S S S S S
 
 |---------------------------------------------------------------------------------|
 |---------------------------------------------------------------------------------|
 |---------------------------------------------------------------------------------|
 |-12----12-12----12----12---12----12----12---12----12---12---12---12----12-12-12--|
 |-12----12-12----12----12---12----12----12---12----12---12---12---12----12-12-12--|
 |-11----11-11----11----11---11----11----11---11----11---11---11---11----11-11-11--|

|
| ~~~~~
| E T T T T T T T T T T T T T T T T T T T T Q
 
 |-----------7-10--7-----9-7----10--7----12-7----10----7----7----------------------|
 |-10b12-------------10------10-------10------10----10---10---10-7--7--------------|
 |------------------------------------------------------------------9b11-----------|
 |---------------------------------------------------------------------------------|
 |---------------------------------------------------------------------------------|
 |---------------------------------------------------------------------------------|

[D5] S S S S S S S S S S S S S S S S
 
 |-----------------------------------------------------|
 |-----------------------------------------------------|
 |--7-----7--7--7--7--7--7--7--7--7--7--7--7--7--7--7--|
 |--7-----7--7--7--7--7--7--7--7--7--7--7--7--7--7--7--|
 |--5-----5--5--5--5--5--5--5--5--5--5--5--5--5--5--5--|
 |--0-----0--0--0--0--0--0--0--0--0--0--0--0--0--0--0--|

|
| E S S S S S S S S S S S S S S
 
 |--7--------7--7--7--7--7--7--7--7--7--7--7--7--7--7--|
 |-10b12====10-10-10-10-10-10-10-10-10-10-10-10-10-10r-|
 |-----------------------------------------------------|
 |-----------------------------------------------------|
 |-----------------------------------------------------|
 |-----------------------------------------------------|

[D5/F#] S S S S S S S S S S S S S S S S
 
 |-----------------------------------------------------------|
 |-----------------------------------------------------------|
 |--7------7--7--7--7--7--7--7---7------7--7--7--7--7--7--7--|
 |--7------7--7--7--7--7--7--7---7------7--7--7--7--7--7--7--|
 |--5------5--5--5--5--5--5--5---5------5--5--5--5--5--5--5--|
 |--4------4--4--4--4--4--4--4---4------4--4--4--4--4--4--4--|

|
| S S S S S S S S S S S S S S S S
 
 |-10-----10-10-10-10-10-10-10---9------9--9--9--9--9--9--9--|
 |-13b15==13-13-13-13-13-13-13r-12b14==12-12-12-12-12-12-12r-|
 |-----------------------------------------------------------|
 |-----------------------------------------------------------|
 |-----------------------------------------------------------|
 |-----------------------------------------------------------|

[E5] S S S S S S S S S S S S S S S S
 
 |-----------------------------------------------------|
 |-----------------------------------------------------|
 |-----------------------------------------------------|
 |--2-----2--2--2--2--2--2--2--2--2--2--2--2--2--2--2--|
 |--2-----2--2--2--2--2--2--2--2--2--2--2--2--2--2--2--|
 |--2-----2--2--2--2--2--2--2--2--2--2--2--2--2--2--2--|

|
| E S S S S S S S S S S S S S S
 
 |-12-------12-12-12-12-12-12-12-12-12-12-12-12-12-12--|
 |-15b17====15-15-15-15-15-15-15-15-15-15-15-15-15-15r-|
 |-----------------------------------------------------|
 |-----------------------------------------------------|
 |-----------------------------------------------------|
 |-----------------------------------------------------|

[G] [Dmaj7/F#]  
[3/4] Gtrs II, III
E S S +S S S S E E
 
 |--------------------------||
 |--------------------------||
 |--7-----7-7-(7)-7-7-7-6-6-||
 |--9-----9-9-(9)-9-9-9-7-7-||
 |--5-----5-5-(5)-5-5-5-5-5-||
 |--5-----5-5-(5)-5-5-5-4-4-||

|
| Gtr V
| H.
 
 |-14-----------------------||

|-17b19====================||
 
 |--------------------------||
 |--------------------------||
 |--------------------------||
 |--------------------------||

Out-Chorus
[Bm] [G] [D5/F#] 
[4/4] S S S S S S S S S S S S S S S S S S S S S S S S S S S S S S S S
 
 |------------------------------------|-------------------------------------|
 |---3--3-3-3-3-3-3-3-3-3-3-3-3-3-3-3-|-------------------------------------|
 |---4--4-4-4-4-4-4-4-4-4-4-4-4-4-4-4-|---7---7-7-7-7-7-7-7-7-7-7-7-7-7-7-7-|
 |---4--4-4-4-4-4-4-4-4-4-4-4-4-4-4-4-|---9---9-9-9-9-9-9-9-7-7-7-7-7-7-7-7-|
 |---2--2-2-2-2-2-2-2-2-2-2-2-2-2-2-2-|---5---5-5-5-5-5-5-5-5-5-5-5-5-5-5-5-|
 |------------------------------------|---5---5-5-5-5-5-5-5-4-4-4-4-4-4-4-4-|

|
| >
| ~~~~~~~~~~~~~~~~~~~~~~~~~~~~~~~~~~~~~~~~~
| +W +W
 
 |-(14)-------------------------------|-(14)--------------------------------|
 |-(17)-------------------------------|-(17)r-------------------------------|
 |------------------------------------|-------------------------------------|
 |------------------------------------|-------------------------------------|
 |------------------------------------|-------------------------------------|
 |------------------------------------|-------------------------------------|

[Bm] [E5] [D5E5F#E5D5] [G] [Dmaj7/F#] 
Gtrs II, III[3/4]
S S S S S S S S S S S S S S S S E S S +S S S S E E
 
 |---------------------------------|---------------------|
 |-3-3-3-3-3-3-3-3-----------------|---------------------|
 |-4-4-4-4-4-4-4-4-----------------|-7-7-7-(7)-7-7-7-6-6-|
 |-4-4-4-4-4-4-4-4-2-2-2-0-2-4-2-0-|-9-9-9-(9)-9-9-9-7-7-|
 |-2-2-2-2-2-2-2-2-2-2-2-0-2-4-2-0-|-5-5-5-(5)-5-5-5-5-5-|
 |-----------------2-2-2-0-2-4-2-0-|-5-5-5-(5)-5-5-5-4-4-|

[Bm] [G] [D5/F#] 
[4/4] S S S S S S S S S S S S S S S S [3/4] S S S S S S S S S S S S
 
 ||----------------------------------|---------------------------||
 ||o-3-3-3-3-3-3-3-3-3-3-3-3-3-3-3-3-|--------------------------o||
 ||--4-4-4-4-4-4-4-4-4-4-4-4-4-4-4-4-|-7-7-7-7-7-7-7-7-7-7-7-7---||
 ||--4-4-4-4-4-4-4-4-4-4-4-4-4-4-4-4-|-9-9-9-9-9-9-9-9-7-7-7-7---||
 ||o-2-2-2-2-2-2-2-2-2-2-2-2-2-2-2-2-|-5-5-5-5-5-5-5-5-5-5-5-5--o||
 ||----------------------------------|-5-5-5-5-5-5-5-5-4-4-4-4---||

[Bm] [G] [D5/F#] 
[4/4] Gtrs II, III
S S S S S S S S S S S S S S S S S S S S S S S S S S S S S S S S
 
 |-----------------------------------------|---------------------------------|
 |-3-3--3-3-3--3--3--3-3-3--3-3-3--3--3--3-|---------------------------------|
 |-4-4--4-4-4--4--4--4-4-4--4-4-4--4--4--4-|-7-7-7-7-7-7-7-7-7-7-7-7-7-7-7-7-|
 |-4-4--4-4-4--4--4--4-4-4--4-4-4--4--4--4-|-9-9-9-9-9-9-9-9-7-7-7-7-7-7-7-7-|
 |-2-2--2-2-2--2--2--2-2-2--2-2-2--2--2--2-|-5-5-5-5-5-5-5-5-5-5-5-5-5-5-5-5-|
 |-----------------------------------------|-5-5-5-5-5-5-5-5-4-4-4-4-4-4-4-4-|

|
| Gtr V
| E S E +S E E S E +S E W
 
 |-----------------------------------------|---------------------------------|
 |-----------------------------------------|---------------------------------|
 |-----------------------------------------|---------------------------------|
 |--------7---(7)-------------7---(7)------|---------------------------------|
 |-----/9---------9\-------/9---------9\---|---------------------------------|
 |-----------------------------------------|---------------------------------|

[Bm] [E5] [D5E5F#E5D5] [G] [Dmaj7/F#] 
Gtrs II, III[3/4]
S S S S S S S S S S S S S S S S E S S +S S S S E E
 
 |---------------------------------|---------------------|
 |-3-3-3-3-3-3-3-3-----------------|---------------------|
 |-4-4-4-4-4-4-4-4-----------------|-7-7-7-(7)-7-7-7-6-6-|
 |-4-4-4-4-4-4-4-4-2-2-2-0-2-4-2-0-|-9-9-9-(9)-9-9-9-7-7-|
 |-2-2-2-2-2-2-2-2-2-2-2-0-2-4-2-0-|-5-5-5-(5)-5-5-5-5-5-|
 |-----------------2-2-2-0-2-4-2-0-|-5-5-5-(5)-5-5-5-4-4-|

[Bm] [G] [D5/F#] 
[4/4] Gtrs II, III
S S S S S S S S S S S S S S S S S S S S S S S S E E +Q
 
 |-----------------------------------------|------------------------------*|
 |-3-3--3-3-3--3--3--3-3-3--3-3-3--3--3--3-|------------------------------*|
 |-4-4--4-4-4--4--4--4-4-4--4-4-4--4--4--4-|-7-7--7-7-7--7--7--7-7-7-(7)--*|
 |-4-4--4-4-4--4--4--4-4-4--4-4-4--4--4--4-|-9-9--9-9-9--9--9--9-7-7-(7)--*|
 |-2-2--2-2-2--2--2--2-2-2--2-2-2--2--2--2-|-5-5--5-5-5--5--5--5-5-5-(5)--*|
 |-----------------------------------------|-5-5--5-5-5--5--5--5-4-4-(4)--*|

|
| Gtr V
| E S E +S E E S E +S E E S E +S E H
 
 |-----------------------------------------|------------------------------*|
 |-----------------------------------------|------------------------------*|
 |-----------------------------------------|------------------------------*|
 |--------7---(7)-------------7---(7)------|--------7---(7)---------------*|
 |-----/9---------9\-------/9---------9\---|-----/9---------9\---9--------*|
 |-----------------------------------------|------------------------------*|
 --------------------------------------------------------------------------------

Duration Legend
 
 ---------------
 W - whole; H - half; Q - quarter; E - 8th; S - 16th; T - 32nd; X - 64th; a - acciaccatura

+ - note tied to previous; . - note dotted; .. - note double dotted
Uncapitalized letters represent notes that are staccato (1/2 duration)
Irregular groupings are notated above the duration line
Duration letters will always appear directly above the note/fret number it represents the
duration for. Duration letters with no fret number below them represent rests. Multi-
bar rests are notated in the form Wxn, where n is the number of bars to rest for. Low
melody durations appear below the staff
Tablature Legend
 
 ----------------

h - hammer-on
p - pull-off
b - bend
pb - pre-bend
r - bend release (if no number after the r, then release immediately)
/\ - slide into or out of (from/to "nowhere")
s - legato slide
S - shift slide
- natural harmonic
(n) - artificial harmonic
n(n) - tapped harmonic
~ - vibrato
tr - trill
T - tap
TP - trem. picking
PM - palm muting
\n/ - tremolo bar dip; n = amount to dip
\n - tremolo bar down
n/ - tremolo bar up
/n\ - tremolo bar inverted dip
= - hold bend; also acts as connecting device for hammers/pulls
- volume swell (louder/softer)
x - on rhythm slash represents muted slash
o - on rhythm slash represents single note slash
Misc Legend
 
 -----------

| - bar
|| - double bar
||o - repeat start
o|| - repeat end
*| - double bar (ending)
: - bar (freetime)
$ - Segno
& - Coda
Tempo markers - = BPM(8/16=s8/s16), where s8 = swing 8ths, s16 = swing 16ths

Important: The song above is NOT stored on the Chordie server. The original song is hosted at www.guitaretab.com. Chordie works as a search engine and provides on-the-fly formatting. Chordie does not index songs against artists'/composers' will. To remove this song please click here.

Text color:
Chord color:
Chord grids: 
Font size:    
Page size: 

Asus2add4 B5 Bm D5 D5/F# Dmaj7/F# E5 G
Rate #1 of 1 versions

Jango Player

Login - add to songbook

SHARE PAGE  




You need to log in to post comments