Guitar Tabs, Chords and Lyrics
Server problems seems to be fixed. Chordie has been experiencing problems with songs disappearing. These issues now seems to be fixed, but still verifying the fix. If you find anything strange, please email admin@chordie.com.


A.D.I. / Horror of It All  Anthrax

A.D.I. HORROR OF IT ALL
As recorded by ANTHRAX
(From the 1987 Album AMONG THE LIVING)
Transcribed by Russ Elton (webmaster@abysslord.com)
Words and Music by ANTHRAX
Arranged by Mike Brown (warlockmb2000@yahoo.com)
Gtr I (E A D G B E) - 'Acoustic'
Gtr II (E A D G B E) - 'Untitled'
Gtr III (E A D G B E) - 'Untitled'
Slowly Q=90
[4/4] Gtr I
E E E E +H E E E E Q +E E
 
 ||-------------------|-------------------|
 ||o-^3-3---^3-(3)----|----3------------3-|
 ||--^1---1-^2-(2)----|-/2---2-1-0--(0)---|
 ||--^0-----^0-(0)----|-------------------|
 ||o-^0-----^0-(0)----|-------------------|
 ||-------------------|-------------------|

[E] [E] [E] [E] [+B] [E] [E] [E] [E] [+B] [E] [E] [E] [E] [B]  
 
 |------------------|------------------|-----------------||
 |---3----^3-(3)----|-^3-3---^3-(3)----|----3-----^3----o||
 |-1---/2-^0-(0)----|-^1---1-^2-(2)----|-/2---2-1-^0-----||
 |--------^0-(0)----|-^0-----^0-(0)----|----------^0-----||
 |--------^0-(0)----|-^0-----^0-(0)----|----------^0----o||
 |------------------|------------------|-----------------||

Moderately Slow Rock Q=108
|-3-|
E E E E E E E E +E E S S S E E E Q
 
 ||----5--------------|-----------------------|
 ||o-----6-------3-^3-|-(3)-------------3-^3--|
 ||--------5---0---^0-|-(0)-----------2---^1--|
 ||--0-------3-----^2-|-(2)-3-2h3p2p0-----^0--|
 ||o---------------^0-|-(0)---------------^0--|
 ||-------------------|-----------------------|

|-3-|
E E E E E E E E +E E S S S E E E Q
 
 |---5--------------|-------------------------||
 |-----6-------3-^3-|-(3)-------------3-^3---o||
 |-------5---0---^2-|-(2)-----------1---^2----||
 |-0-------2-----^3-|-(3)-3-2h3p2p0-----^0----||
 |---------------^0-|-(0)---------------^0---o||
 |------------------|-------------------------||

|-3-|
E E E E E E E E +E E S S S E E E Q
 
 |---5--------------|-----------------------|
 |-----6-------3-^3-|-(3)-------------3-^3--|
 |-------5---0---^0-|-(0)-----------2---^1--|
 |-0-------3-----^2-|-(2)-3-2h3p2p0-----^0--|
 |---------------^0-|-(0)---------------^0--|
 |------------------|-----------------------|

|-3-|
E E E E E E Q Q. E S S S E E E
 
 |---5------------|-------------------|
 |-----6-------3--|-^3--------------3-|
 |-------5---0----|-^2------------1---|
 |-0-------2------|-^3--3-2h3p2p0-----|
 |----------------|-^0----------------|
 |----------------|-------------------|

Moderately Fast Rock Q=180
Gtr II
 
 PM| PM----------------------|

W E E E E E E E E E E E E E E E E 8x
 
 |-----------||------------------|------------------||
 |-^3--------||o-----------------|-----------------o||
 |-^2--------||------------------|------------------||
 |-^0--------||--7-----7---------|------------------||
 |-^0--------||o-5-----5---------|-----------------o||
 |-----------||----0-0---0-0-0-0-|-0-0-0-0-0-0-0-0--||

Gtr II
 
 PM| PM------------------------|

E E E E E E E E E E E E E E E E 4x
 
 ||--------------------|------------------||
 ||o-------------------|-----------------o||
 ||--------------------|------------------||
 ||--7-----7-----------|------------------||
 ||o-5-----5-----------|-----------------o||
 ||----0-0---0-0-0-0---|-0-0-0-0-0-0-0-0--||

|
| Gtr III
 
 | PM| PM------|

| E E E E E E E S S E E E E E E E E 4x
 
 ||--------------------|------------------||
 ||o-------------------|-----------------o||
 ||--------------------|------------------||
 ||--7-----7-----------|-7-6-5---3-4-7-6--||
 ||o-5-----5-------5-5-|-5-4-3---1-2-5-4-o||
 ||----0-0---0-0-0-----|------------------||

Gtrs II, III
 
 PM| PM------|

E E E E E E E S S E E E E E E E E 8x
 
 ||--------------------|------------------||
 ||o-------------------|-----------------o||
 ||--------------------|------------------||
 ||--7-----7-----------|-7-6-5---3-4-7-6--||
 ||o-5-----5-------5-5-|-5-4-3---1-2-5-4-o||
 ||----0-0---0-0-0-----|------------------||
 PM--------| PM--------|

[E] [E] [E] [E] [E] [E] [E] [E] [E] [E] [E] [E] [E] [E] [E] [E]  
 
 |-||------------------|------------------|
 |-||o-----------------|------------------|
 |-||------------------|------------------|
 |-||--3S4-------------|-3S4--------------|
 |-||o-1S2-------------|-1S2--------------|
 |-||------0-0-0-0-0-0-|-----0-0-0-0-0-0--|

1.,2.,3. 4.
 
 PM| PM| PM--------| PM|

E E E E E E E E E E E E E E E E E E E E E Q E +W
 
 |-----------------|------------------||----------------||---------|
 |-----------------|-----------------o||----------------||o--------|
 |-----------------|------------------||----------------||---------|
 |-3S4-----3S4-----|-3S4--------------||-3S4-----3S4----||---------|
 |-1S2-----1S2-----|-1S2-------------o||-1S2-----1S2--5-||o-(5)----|
 |-----0-0-----0-0-|-----3-3-3-3-3-3--||-----0-0------3-||--(3)----|

+Q E E E Q E 4x +Q Q. Q.
 
 |------------------||-||------------------|
 |-----------------o||-||o-----------------|
 |------------------||-||------------------|
 |----------3S4-----||-||-------/7----6----|
 |-(5)------1S2--5-o||-||o-(5)--/5----4----|
 |-(3)--0-0------3--||-||--(3)-------------|

Q E E E Q E 3x +Q Q. Q. Q E E E E Q
 
 |----------------||-----------------|-----------------|
 |---------------o||-----------------|-----------------|
 |----------------||-----------------|-----------------|
 |-5------3S4-----||------/7----6----|-5------3S4-3----|
 |-3------1S2--5-o||-(5)--/5----4----|-3------1S2-1----|
 |----0-0------3--||-(3)-------------|----0-0----------|

PM PM| PM| PM| PM
E E E E E E E E E E E E +E Q E E E E E E E E E E E E E +E Q E 7x
 
 |-----------------|------------------||------------------|-------------------||
 |-----------------|------------------||o-----------------|------------------o||
 |-----------------|------------------||------------------|-------------------||
 |-4-------3-------|------------------||--4-------3-------|-------------------||
 |-2-2-----1-2-----|-5-----3-(3)-3----||o-2-2-----1-2-----|-5-----3-(3)-3----o||
 |---0-0-0---0-0-0-|-3-0-0-1-(1)-1--0-||----0-0-0---0-0-0-|-3-0-0-1-(1)-1--0--||
 PM| PM----------------------| PM| PM------|

E E E E E E E E E E E E E E E E E E E E E E E S S E E E E E E E E
 
 ||------------------|-----------------|-------------------|------------------||
 ||o-----------------|-----------------|-------------------|-----------------o||
 ||------------------|-----------------|-------------------|------------------||
 ||--7-----7---------|-----------------|-7-----7-----------|-7-6-5---3-4-7-6--||
 ||o-5-----5---------|-----------------|-5-----5-------5-5-|-5-4-3---1-2-5-4-o||
 ||----0-0---0-0-0-0-|-0-0-0-0-0-0-0-0-|---0-0---0-0-0-----|------------------||

Q Q. Q. Q E E E Q E +Q Q. Q. Q E E E Q E
 
 |---------------|---------------||------------------|----------------||
 |---------------|---------------||o-----------------|---------------o||
 |---------------|---------------||------------------|----------------||
 |----/7----6----|-5------3S4----||-------/7----6----|-5------3S4-----||
 |-5--/5----4----|-3------1S2--5-||o-(5)--/5----4----|-3------1S2--5-o||
 |-3-------------|----0-0------3-||--(3)-------------|----0-0------3--||

PM
+Q Q. Q. Q E E E E Q E E E E E E E E E E E E +E Q E
 
 |-----------------|---------------|-----------------|------------------|
 |-----------------|---------------|-----------------|------------------|
 |-----------------|---------------|-----------------|------------------|
 |------/7----6----|-5------3S4-3--|-4-------3-------|------------------|
 |-(5)--/5----4----|-3------1S2-1--|-2-2-----1-2-----|-5-----3-(3)-3----|
 |-(3)-------------|----0-0--------|---0-0-0---0-0-0-|-3-0-0-1-(1)-1--0-|

$
PM| PM| PM| PM
E E E E E E E E E E E E +E Q E 8x
 
 ||------------------|-------------------||
 ||o-----------------|------------------o||
 ||------------------|-------------------||
 ||--4-------3-------|-------------------||
 ||o-2-2-----1-2-----|-5-----3-(3)-3----o||
 ||----0-0-0---0-0-0-|-3-0-0-1-(1)-1--0--||
 PM| PM----------------------|

[E] [E] [E] [E] [E] [E] [E] [E] [E] [E] [E] [E] [E] [E] [E] [E]  
 
 |-||------------------|-----------------|
 |-||o-----------------|-----------------|
 |-||------------------|-----------------|
 |-||--7-----7---------|-----------------|
 |-||o-5-----5---------|-----------------|
 |-||----0-0---0-0-0-0-|-0-0-0-0-0-0-0-0-|
 PM| PM------|

E E E E E E E S S E E E E E E E E Q Q. Q. Q E E E Q E
 
 |-------------------|------------------||----------------|---------------|
 |-------------------|-----------------o||----------------|---------------|
 |-------------------|------------------||----------------|---------------|
 |-7-----7-----------|-7-6-5---3-4-7-6--||-----/7----6----|-5------3S4----|
 |-5-----5-------5-5-|-5-4-3---1-2-5-4-o||--5--/5----4----|-3------1S2--5-|
 |---0-0---0-0-0-----|------------------||--3-------------|----0-0------3-|

+Q Q. Q. Q E E E Q E +Q Q. Q. Q E E E E Q
 
 ||------------------|----------------||-----------------|----------------|
 ||o-----------------|---------------o||-----------------|----------------|
 ||------------------|----------------||-----------------|----------------|
 ||-------/7----6----|-5------3S4-----||------/7----6----|-5------3S4-3---|
 ||o-(5)--/5----4----|-3------1S2--5-o||-(5)--/5----4----|-3------1S2-1---|
 ||--(3)-------------|----0-0------3--||-(3)-------------|----0-0---------|

Q q q q q H q q q Q Q +Q q q q q H q
 
 |-------------|------------|-------------|---------------|------------|
 |-------------|------------|-------------|---------------|------------|
 |-------------|------------|-------------|---------------|------------|
 |-------------|------------|-------3-----|---------------|------------|
 |-5--4--4--4--|-4--2----4--|-4--4--1--3--|-(3)--4--4--4--|-4--2----4--|
 |-3--2--2--2--|-2--0----2--|-2--2-----1--|-(1)--2--2--2--|-2--0----2--|

To Coda
PM| PM| PM| PM| PM| PM| PM| PM|
q q Q Q E E E E E E E E E E E E E E Q E E E E E E E E
 
 |-------------||------------------|----------------|-----------------|
 |-------------||o-----------------|----------------|-----------------|
 |-------------||------------------|----------------|-----------------|
 |-------3-----||------------------|----------------|-----------------|
 |-4--4--1--3--||o-----4-----4-----|-4-----4-----2--|-----4-----4-----|
 |-2--2-----1--||--0-0-2-0-0-2-0-0-|-2-0-0-2-0-0-0--|-0-0-2-0-0-2-0-0-|

D.S. al Coda
PM| PM
E E E E +Q Q E E E E E E E E E E E E +E Q E
 
 |------------------||-----------------|------------------|
 |-----------------o||-----------------|------------------|
 |------------------||-----------------|------------------|
 |-------3-(3)------||-4-------3-------|------------------|
 |-4-----1-(1)--3--o||-2-2-----1-2-----|-5-----3-(3)-3----|
 |-2-0-0--------1---||---0-0-0---0-0-0-|-3-0-0-1-(1)-1--0-|

&
PM--|
E E E E E Q E +W +Q E E E Q E 3x
 
 |----------------||-------------|------------------||
 |----------------||o------------|-----------------o||
 |----------------||-------------|------------------||
 |---------3S4----||-------------|----------3S4-----||
 |-4-------1S2--5-||o-(5)--------|-(5)------1S2--5-o||
 |-2-0-0-0------3-||--(3)--------|-(3)--0-0------3--||

Faster Q=220
 
 PM--------------------------|

+Q E E E E E E E E E E E E E E
 
 |------------------|-----------------|
 |------------------|-----------------|
 |------------------|-----------------|
 |------------------|-----------------|
 |-(5)--------------|-----------------|
 |-(3)--3-3-3-3-3-3-|-3-3-3-3-3-3-3-3-|
 PM--| PM----| PM--| PM--| PM----| PM--|

Q E E E E E E E E E E E E E E Q E E E E E E E E E E E E E E 6x
 
 ||-----------------|-----------------|----------------|-------------------||
 ||o----------------|-----------------|----------------|------------------o||
 ||-----------------|-----------------|----------------|-------------------||
 ||-----------------|-----------------|----------------|-------------------||
 ||o-5--------6-----|---5-------------|-5--------6-----|---5-------3-3-3--o||
 ||--3--3-6-3---3-6-|-3---3-6-3-6-6-6-|-3--3-6-3---3-6-|-3---3-6-3---------||
 PM--------------------| PM--------------------|

Q E E E E E E E E E E E E E E Q E E E E E E E E E E E E E E
 
 ||-----------------|-----------------|----------------|-------------------||
 ||o----------------|-----------------|----------------|------------------o||
 ||-----------------|-----------------|----------------|-------------------||
 ||-----------------|-----------------|----------------|-------------------||
 ||o-5--------------|-----------------|-5--------------|-----------3-3-3--o||
 ||--3--3-3-3-3-3-3-|-3-3-3-3-3-6-6-6-|-3--3-3-3-3-3-3-|-3-3-3-3-3---------||
 PM--| PM----| PM--| PM--| PM----| PM--|

Q E E E E E E E E E E E E E E Q E E E E E E E E E E E E E E
 
 ||-----------------|-----------------|----------------|-------------------||
 ||o----------------|-----------------|----------------|------------------o||
 ||-----------------|-----------------|----------------|-------------------||
 ||-----------------|-----------------|----------------|-------------------||
 ||o-5--------6-----|---5-------------|-5--------6-----|---5-------3-3-3--o||
 ||--3--3-6-3---3-6-|-3---3-6-3-6-6-6-|-3--3-6-3---3-6-|-3---3-6-3---------||
 PM--------------------| PM--------------------|

Q E E E E E E E E E E E E E E Q E E E E E E E E E E E E E E
 
 ||-----------------|-----------------|----------------|-------------------||
 ||o----------------|-----------------|----------------|------------------o||
 ||-----------------|-----------------|----------------|-------------------||
 ||-----------------|-----------------|----------------|-------------------||
 ||o-5--------------|-----------------|-5--------------|-----------3-3-3--o||
 ||--3--3-3-3-3-3-3-|-3-3-3-3-3-6-6-6-|-3--3-3-3-3-3-3-|-3-3-3-3-3---------||
 PM--| PM----| PM--| PM--| PM----| PM--|

Q E E E E E E E E E E E E E E Q E E E E E E E E E E E E E E
 
 ||-----------------|-----------------|----------------|-------------------||
 ||o----------------|-----------------|----------------|------------------o||
 ||-----------------|-----------------|----------------|-------------------||
 ||-----------------|-----------------|----------------|-------------------||
 ||o-5--------6-----|---5-------------|-5--------6-----|---5-------3-3-3--o||
 ||--3--3-6-3---3-6-|-3---3-6-3-6-6-6-|-3--3-6-3---3-6-|-3---3-6-3---------||

W +Q E E E Q E +W +Q E E E Q E 3x
 
 |----------|-----------------||-------------|------------------||
 |----------|-----------------||o------------|-----------------o||
 |----------|-----------------||-------------|------------------||
 |----------|----------3S4----||-------------|----------3S4-----||
 |-5--------|-(5)------1S2--5-||o-(5)--------|-(5)------1S2--5-o||
 |-3--------|-(3)--0-0------3-||--(3)--------|-(3)--0-0------3--||

+Q Q. Q. Q E E E Q E 7x
 
 ||------------------|----------------||
 ||o-----------------|---------------o||
 ||------------------|----------------||
 ||-------/7----6----|-5------3S4-----||
 ||o-(5)--/5----4----|-3------1S2--5-o||
 ||--(3)-------------|----0-0------3--||
 PM--| PM----| PM--| PM--| PM|

+Q E E E E E E E E E E E E E E Q E E E E E E
 
 |------------------|-----------------|------------------|
 |------------------|-----------------|------------------|
 |------------------|-----------------|------------------|
 |------------------|-----------------|------------------|
 |-(5)--------6-----|---5-------------|-5--------6-------|
 |-(3)--3-6-3---3-6-|-3---3-6-3-6-6-6-|-3--3-6-3---3-6---|
 PM PM--| PM--| PM---

E E E E E E E E Q E E E E E E
 
 |-----------------||-----------------|
 |-----------------||o----------------|
 |-----------------||-----------------|
 |-----------------||-----------------|
 |---5-------3-3-3-||o-5--------6-----|
 |-3---3-6-3-------||--3--3-6-3---3-6-|
 -| PM--| PM--| PM----| PM--|

E E E E E E E E Q E E E E E E E E E E E E E E 7x
 
 |-----------------|----------------|------------------||
 |-----------------|----------------|-----------------o||
 |-----------------|----------------|------------------||
 |-----------------|----------------|------------------||
 |---5-------------|-5--------6-----|---5-------3-3-3-o||
 |-3---3-6-3-6-6-6-|-3--3-6-3---3-6-|-3---3-6-3--------||

6/8
PM| PM|
E E E E E E E E E E E E E E Q S S E E E 8x
 
 |-----------------|-------------||----------------||
 |-----------------|-------------||o--------------o||
 |-----------------|-------------||----------------||
 |-4-------3-------|-------------||----------------||
 |-2-2-----1-2-----|-5-----3---3-||o--------3---3-o||
 |---0-0-0---0-0-0-|-3-0-0-1---1-||-----x-x-1---1--||

Duration Legend
 
 ---------------
 W - whole; H - half; Q - quarter; E - 8th; S - 16th; T - 32nd; X - 64th; a - acciaccatura

+ - note tied to previous; . - note dotted; .. - note double dotted
Uncapitalized letters represent notes that are staccato (1/2 duration)
Irregular groupings are notated above the duration line
Duration letters will always appear directly above the note/fret number it represents the
duration for. Duration letters with no fret number below them represent rests. Multi-
bar rests are notated in the form Wxn, where n is the number of bars to rest for. Low
melody durations appear below the staff
Tablature Legend
 
 ----------------

h - hammer-on
p - pull-off
b - bend
pb - pre-bend
r - bend release (if no number after the r, then release immediately)
/\ - slide into or out of (from/to "nowhere")
s - legato slide
S - shift slide
- natural harmonic
(n) - artificial harmonic
n(n) - tapped harmonic
~ - vibrato
tr - trill
T - tap
TP - trem. picking
PM - palm muting
\n/ - tremolo bar dip; n = amount to dip
\n - tremolo bar down
n/ - tremolo bar up
/n\ - tremolo bar inverted dip
= - hold bend; also acts as connecting device for hammers/pulls
- volume swell (louder/softer)
x - on rhythm slash represents muted slash
o - on rhythm slash represents single note slash
Misc Legend
 
 -----------

| - bar
|| - double bar
||o - repeat start
o|| - repeat end
*| - double bar (ending)
: - bar (freetime)
$ - Segno
& - Coda
Tempo markers - = BPM(8/16=s8/s16), where s8 = swing 8ths, s16 = swing 16ths

Important: The song above is NOT stored on the Chordie server. The original song is hosted at www.guitaretab.com. Chordie works as a search engine and provides on-the-fly formatting. Chordie does not index songs against artists'/composers' will. To remove this song please click here.

Text color:
Chord color:
Chord grids: 
Font size:    
Page size: 

B E
Rate #1 of 1 versions

Login - add to songbook

SHARE PAGE  




You need to log in to post comments