Guitar Tabs, Chords and Lyrics
Major upgrade!! After one year development the new version of Chordie is now online! Please give feedback.


The Day You Died  Arch Enemy

THE DAY YOU DIED
As recorded by Arch Enemy
(From the 2007 Album RISE OF THE TYRANT)
Words and Music by Arch Enemy
Arranged by Arch Enemy
Transcribed by Liam Jemmeson
Gtr I (C F A# D# G C) - 'Untitled'
Gtr II (C F A# D# G C) - 'Untitled'
Gtr III (C F A# D# G C) - 'Untitled'
Q=160
[4/4] Gtr I
 
 PM------------------------------------------------------------------|

[E] [E] [E] [E] [E] [E] [E] [E] [E] [E] [E] [E] [E] [E] [E] [E] [E] [E] [E] [E] [E] [E] [E] [E] [E] [E] [E] [E] [E] [E] [E] [E]  
 
 |-----------------|-----------------|-----------------|------------------|
 |-----------------|-----------------|-----------------|------------------|
 |-5-5-5-5-5-5-5-5-|-5-5-5-5-5-5-5-5-|-5-5-5-5-5-5-5-5-|-5-5-5-5-5-5-5-5--|
 |-7-7-7-7-7-7-7-7-|-7-7-7-7-7-7-7-7-|-7-7-7-7-7-7-7-7-|-7-7-7-7-7-7-7-7--|
 |-7-7-7-7-7-7-7-7-|-7-7-7-7-7-7-7-7-|-7-7-7-7-7-7-7-7-|-7-7-7-7-7-7-7-7--|
 |-----------------|-----------------|-----------------|------------------|

|
| Gtr II
 
 | PM------------------------------------------------------------------|

| E E E E E E E E E E E E E E E E E E E E E E E E E E E E E E E E
 
 |-----------------|-----------------|-----------------|------------------|
 |-----------------|-----------------|-----------------|------------------|
 |-5-5-5-5-5-5-5-5-|-5-5-5-5-5-5-5-5-|-5-5-5-5-5-5-5-5-|-5-5-5-5-5-5-5-5--|
 |-7-7-7-7-7-7-7-7-|-7-7-7-7-7-7-7-7-|-7-7-7-7-7-7-7-7-|-7-7-7-7-7-7-7-7--|
 |-7-7-7-7-7-7-7-7-|-7-7-7-7-7-7-7-7-|-7-7-7-7-7-7-7-7-|-7-7-7-7-7-7-7-7--|
 |-----------------|-----------------|-----------------|------------------|
 PM------------------------------------------------------------------|

[E] [E] [E] [E] [E] [E] [E] [E] [E] [E] [E] [E] [E] [E] [E] [E] [E] [E] [E] [E] [E] [E] [E] [E] [E] [E] [E] [E] [E] [E] [E] [E]  
 
 |-----------------|-----------------|-----------------|-----------------|
 |-----------------|-----------------|-----------------|-----------------|
 |-5-5-5-5-5-5-5-5-|-5-5-5-5-5-5-5-5-|-4-4-4-4-4-4-4-4-|-4-4-4-4-4-4-4-4-|
 |-7-7-7-7-7-7-7-7-|-7-7-7-7-7-7-7-7-|-5-5-5-5-5-5-5-5-|-5-5-5-5-5-5-5-5-|
 |-7-7-7-7-7-7-7-7-|-7-7-7-7-7-7-7-7-|-5-5-5-5-5-5-5-5-|-5-5-5-5-5-5-5-5-|
 |-----------------|-----------------|-----------------|-----------------|

|
 
 | PM------------------------------------------------------------------|

| E E E E E E E E E E E E E E E E E E E E E E E E E E E E E E E E
 
 |-----------------|-----------------|-----------------|-----------------|
 |-----------------|-----------------|-----------------|-----------------|
 |-5-5-5-5-5-5-5-5-|-5-5-5-5-5-5-5-5-|-4-4-4-4-4-4-4-4-|-4-4-4-4-4-4-4-4-|
 |-7-7-7-7-7-7-7-7-|-7-7-7-7-7-7-7-7-|-5-5-5-5-5-5-5-5-|-5-5-5-5-5-5-5-5-|
 |-7-7-7-7-7-7-7-7-|-7-7-7-7-7-7-7-7-|-5-5-5-5-5-5-5-5-|-5-5-5-5-5-5-5-5-|
 |-----------------|-----------------|-----------------|-----------------|
 PM--------------------|

[E] [E] [E] [E] [E] [E] [E] [E] [E] [E] [E] [E] [E] [E] [E] [E] [E] [E] [E] [E] [E] [E] [E] [E] [E] [E] [E] [E] [E] [E] [E] [E]  
 
 |-----------------|-----------------|-----------------|-----------------|
 |-----------------|-----------------|-----------------|-----------------|
 |-5-5-5-5-5-5-5-5-|-5-5-5-5-5-5-5-5s|=9-9-9-9-9-9-9-9-|-9-9-9-9-9-9-9-9-|
 |-3-3-3-3-3-3-3-3-|-3-3-3-3-3-3-3-3s|=7-7-7-7-7-7-7-7-|-6-6-6-6-6-6-6-6-|
 |-3-3-3-3-3-3-3-3-|-3-3-3-3-3-3-3-3s|=7-7-7-7-7-7-7-7-|-7-7-7-7-7-7-7-7-|
 |-----------------|-----------------|-----------------|-----------------|

|
 
 | PM--------------------|

| E E E E E E E E E E E E E E E E E E E E E E E E E E E E E E E E
 
 |-----------------|-----------------|-----------------|-----------------|
 |-----------------|-----------------|-----------------|-----------------|
 |-5-5-5-5-5-5-5-5-|-5-5-5-5-5-5-5-5s|=9-9-9-9-9-9-9-9-|-9-9-9-9-9-9-9-9-|
 |-3-3-3-3-3-3-3-3-|-3-3-3-3-3-3-3-3s|=7-7-7-7-7-7-7-7-|-6-6-6-6-6-6-6-6-|
 |-3-3-3-3-3-3-3-3-|-3-3-3-3-3-3-3-3s|=7-7-7-7-7-7-7-7-|-7-7-7-7-7-7-7-7-|
 |-----------------|-----------------|-----------------|-----------------|

[E] [E] [E] [E] [E] [E] [E] [E] [E] [E] [E] [E] [E] [E] [E] [E]  
 
 |------------------|------------------------|
 |------------------|------------------------|
 |--5-5-5-5-5-5-5-5-|--5--5-5-5--5--5-5----5-|
 |--7-7-7-7-7-7-7-7-|--7--7-7-7--7--7-7----7-|
 |--7-7-7-7-7-7-7-7-|--7--7-7-7--7--7-7----7-|
 |------------------|------------------------|

|
| E E E E E E E E E E E E E E E E
 
 |------------------|------------------------|
 |------------------|------------------------|
 |--5-5-5-5-5-5-5-5-|--5--5-5-5--5--5-5----5-|
 |--7-7-7-7-7-7-7-7-|--7--7-7-7--7--7-7----7-|
 |--7-7-7-7-7-7-7-7-|--7--7-7-7--7--7-7----7-|
 |------------------|------------------------|

|
| Gtr III
| W +H +E E S S E
 
 |------------------|------------------------|
 |------------------|------------------------|
 |-/9---------------|-(9)-------(9)-9-9h10p9-|
 |------------------|------------------------|
 |------------------|------------------------|
 |------------------|------------------------|

[E] [E] [E] [E] [E] [E] [E] [E] [E] [E] [E] [E] [E] [E] [E] [E]  
 
 |-----------------|--------------------|
 |-----------------|--------------------|
 |-4-4-4-4-4-4-4-4-|--4--4-4-4-4-4-4-4--|
 |-5-5-5-5-5-5-5-5-|--5--5-5-5-5-5-5-5--|
 |-5-5-5-5-5-5-5-5-|--5--5-5-5-5-5-5-5--|
 |-----------------|--------------------|

|
| E E E E E E E E E E E E E E E E
 
 |-----------------|--------------------|
 |-----------------|--------------------|
 |-4-4-4-4-4-4-4-4-|--4--4-4-4-4-4-4-4--|
 |-5-5-5-5-5-5-5-5-|--5--5-5-5-5-5-5-5--|
 |-5-5-5-5-5-5-5-5-|--5--5-5-5-5-5-5-5--|
 |-----------------|--------------------|

|
| W +H Q Q
 
 |-----------------|--------------------|
 |-----------------|--------------------|
 |-7---------------|-(7)-------5---7----|
 |-----------------|--------------------|
 |-----------------|--------------------|
 |-----------------|--------------------|

[E] [E] [E] [E] [E] [E] [E] [E] [E] [E] [E] [E] [E] [E] [E] [E]  
 
 |--------------------|-------------------|
 |--------------------|-------------------|
 |-5-5--5-5-5-5-5--5--|--5--5-5-5-5-5-5-5s|
 |-3-3--3-3-3-3-3--3--|--3--3-3-3-3-3-3-3s|
 |-3-3--3-3-3-3-3--3--|--3--3-3-3-3-3-3-3s|
 |--------------------|-------------------|

|
| E E E E E E E E E E E E E E E E
 
 |--------------------|-------------------|
 |--------------------|-------------------|
 |-5-5--5-5-5-5-5--5--|--5--5-5-5-5-5-5-5s|
 |-3-3--3-3-3-3-3--3--|--3--3-3-3-3-3-3-3s|
 |-3-3--3-3-3-3-3--3--|--3--3-3-3-3-3-3-3s|
 |--------------------|-------------------|

|
| E H. +E +H. E E
 
 |--------------------|-------------------|
 |--------------------|-------------------|
 |-7s9------------(9)-|-(9)-----------5-7-|
 |--------------------|-------------------|
 |--------------------|-------------------|
 |--------------------|-------------------|

[E] [E] [E] [E] [E] [E] [E] [E] [E] [E] [E] [E] [E] [E] [E] [E]  
 
 |----------------------|------------------|
 |----------------------|------------------|
 |--9--9-9-9-9-9-9----9-|-9-9-9-9-9-9-9-9--|
 |--7--7-7-7-7-7-7----7-|-6-6-6-6-6-6-6-6--|
 |--7--7-7-7-7-7-7----7-|-7-7-7-7-7-7-7-7--|
 |----------------------|------------------|

|
| E E E E E E E E E E E E E E E E
 
 |----------------------|------------------|
 |----------------------|------------------|
 |--9--9-9-9-9-9-9----9-|-9-9-9-9-9-9-9-9--|
 |--7--7-7-7-7-7-7----7-|-6-6-6-6-6-6-6-6--|
 |--7--7-7-7-7-7-7----7-|-7-7-7-7-7-7-7-7--|
 |----------------------|------------------|

|
| H. S S E W
 
 |----------------------|------------------|
 |----------------------|------------------|
 |-/9------------9h10p9-|-7----------------|
 |----------------------|------------------|
 |----------------------|------------------|
 |----------------------|------------------|

[E] [E] [E] [E] [E] [E] [E] [E] [E] [E] [E] [E] [E] [E] [E] [E]  
 
 |-------------------|-----------------------------|
 |-------------------|-----------------------------|
 |---5-5-5-5-5-5-5-5-|---5--5-5-5---5---5--5-----5-|
 |---7-7-7-7-7-7-7-7-|---7--7-7-7---7---7--7-----7-|
 |---7-7-7-7-7-7-7-7-|---7--7-7-7---7---7--7-----7-|
 |-------------------|-----------------------------|

|
| E E E E E E E E E E E E E E E E
 
 |-------------------|-----------------------------|
 |-------------------|-----------------------------|
 |---5-5-5-5-5-5-5-5-|---5--5-5-5---5---5--5-----5-|
 |---7-7-7-7-7-7-7-7-|---7--7-7-7---7---7--7-----7-|
 |---7-7-7-7-7-7-7-7-|---7--7-7-7---7---7--7-----7-|
 |-------------------|-----------------------------|

|
| W +H +E E S S E
 
 |-/12---------------|-(12)-------(12)-12-12h13p12-|
 |-------------------|-----------------------------|
 |-------------------|-----------------------------|
 |-------------------|-----------------------------|
 |-------------------|-----------------------------|
 |-------------------|-----------------------------|

[E] [E] [E] [E] [E] [E] [E] [E] [E] [E] [E] [E] [E] [E] [E] [E]  
 
 |------------------|----------------------|
 |------------------|----------------------|
 |--4-4-4-4-4-4-4-4-|---4--4-4-4-4-4--4-4--|
 |--5-5-5-5-5-5-5-5-|---5--5-5-5-5-5--5-5--|
 |--5-5-5-5-5-5-5-5-|---5--5-5-5-5-5--5-5--|
 |------------------|----------------------|

|
| E E E E E E E E E E E E E E E E
 
 |------------------|----------------------|
 |------------------|----------------------|
 |--4-4-4-4-4-4-4-4-|---4--4-4-4-4-4--4-4--|
 |--5-5-5-5-5-5-5-5-|---5--5-5-5-5-5--5-5--|
 |--5-5-5-5-5-5-5-5-|---5--5-5-5-5-5--5-5--|
 |------------------|----------------------|

|
| W +H Q Q
 
 |-10---------------|-(10)-------8---10----|
 |------------------|----------------------|
 |------------------|----------------------|
 |------------------|----------------------|
 |------------------|----------------------|
 |------------------|----------------------|

[E] [E] [E] [E] [E] [E] [E] [E] [E] [E] [E] [E] [E] [E] [E] [E]  
 
 |-----------------------|---------------------|
 |-----------------------|---------------------|
 |--5--5--5-5-5-5-5---5--|---5--5-5-5-5-5-5--5s|
 |--3--3--3-3-3-3-3---3--|---3--3-3-3-3-3-3--3s|
 |--3--3--3-3-3-3-3---3--|---3--3-3-3-3-3-3--3s|
 |-----------------------|---------------------|

|
| E E E E E E E E E E E E E E E E
 
 |-----------------------|---------------------|
 |-----------------------|---------------------|
 |--5--5--5-5-5-5-5---5--|---5--5-5-5-5-5-5--5s|
 |--3--3--3-3-3-3-3---3--|---3--3-3-3-3-3-3--3s|
 |--3--3--3-3-3-3-3---3--|---3--3-3-3-3-3-3--3s|
 |-----------------------|---------------------|

|
| E H. +E +H. E E
 
 |-10S12------------(12)-|-(12)-----------8-10-|
 |-----------------------|---------------------|
 |-----------------------|---------------------|
 |-----------------------|---------------------|
 |-----------------------|---------------------|
 |-----------------------|---------------------|

[E] [E] [E] [E] [E] [E] [E] [E] [E] [E] [E] [E] [E] [E] [E] [E]  
 
 |-------------------------|----------------------|
 |-------------------------|----------------------|
 |---9--9-9-9-9-9--9-----9-|-9----9-9-9--9-9-9-9--|
 |---7--7-7-7-7-7--7-----7-|-6----6-6-6--6-6-6-6--|
 |---7--7-7-7-7-7--7-----7-|-7----7-7-7--7-7-7-7--|
 |-------------------------|----------------------|

|
| E E E E E E E E E E E E E E E E
 
 |-------------------------|----------------------|
 |-------------------------|----------------------|
 |---9--9-9-9-9-9--9-----9-|-9----9-9-9--9-9-9-9--|
 |---7--7-7-7-7-7--7-----7-|-6----6-6-6--6-6-6-6--|
 |---7--7-7-7-7-7--7-----7-|-7----7-7-7--7-7-7-7--|
 |-------------------------|----------------------|

|
| H. S S E H H
 
 |-/12------------12h13p12-|-8b10-------10--------|
 |-------------------------|----------------------|
 |-------------------------|----------------------|
 |-------------------------|----------------------|
 |-------------------------|----------------------|
 |-------------------------|----------------------|

PM PM
E E E E E E E E E E E e Q Q E E E E E E E E E E E e Q Q
 
 |-----------------|----------------|------------------|------------------|
 |-----------------|----------------|------------------|------------------|
 |-5-5---5---5-----|----------------|-7-7---7---7------|------------------|
 |-7-7---7---7---9-|---9---7-9--10--|-7-7---7---7---10-|---10---10-10--9--|
 |-7-7---7---7---7-|---7---7-7---7--|-8-8---8---8----8-|----8----7--7--7--|
 |-----------------|----------------|------------------|------------------|

PM PM
E E E E E E E E E E E e Q Q E E E E E E E E E E e Q. Q
 
 |-----------------|----------------|------------------|-------------------|
 |-----------------|----------------|------------------|-------------------|
 |-5-5---5---5-----|----------------|-7-7---7---7------|---------10-----9--|
 |-7-7---7---7---9-|---9---7-9--10--|-7-7---7---7---10-|---10-10-12----10--|
 |-7-7---7---7---7-|---7---7-7---7--|-8-8---8---8----8-|----7--7-----------|
 |-----------------|----------------|------------------|-------------------|

|
| Gtr II
 
 | PM----------------------|

| W W E E E E E E E E E E E Q. Q
 
 |-----------------|----------------|------------------|-------------------|
 |-----------------|----------------|------------------|-------------------|
 |-----------------|----------------|------------------|---------10-----9--|
 |-----------------|----------------|-7-7-7-7-7-7-7--7-|-7--7--7-12----10--|
 |-----------------|----------------|------------------|-------------------|
 |-----------------|----------------|------------------|-------------------|

$
E E E E E Q. W E E E E E Q. W
 
 |----------------|----------|------------------|------|
 |----------------|----------|------------------|------|
 |-5-5------------|----------|-7-7--------------|------|
 |-7-7---9-9------|----------|-7-7---10-10------|------|
 |-7-7---7-7------|----------|-8-8----8--8------|------|
 |----------------|----------|------------------|------|

|
| E E E E E Q. W E E E E E Q. W
 
 |----------------|----------|------------------|------|
 |----------------|----------|------------------|------|
 |-5-5------------|----------|-7-7--------------|------|
 |-7-7---9-9------|----------|-7-7---10-10------|------|
 |-7-7---7-7------|----------|-8-8----8--8------|------|
 |----------------|----------|------------------|------|

E E E E E Q. W E E E E E Q. Q. Q. Q
 
 |----------------|----------|------------------|----------------|
 |----------------|----------|------------------|----------------|
 |-5-5------------|----------|-7-7--------------|------10-----9--|
 |-7-7---9-9------|----------|-7-7---10-10------|------12----10--|
 |-7-7---7-7------|----------|-8-8----8--8------|----------------|
 |----------------|----------|------------------|----------------|

|
| E E E E E Q. W E E E E E Q. Q. Q. Q
 
 |----------------|----------|------------------|----------------|
 |----------------|----------|------------------|----------------|
 |-5-5------------|----------|-7-7--------------|------10-----9--|
 |-7-7---9-9------|----------|-7-7---10-10------|------12----10--|
 |-7-7---7-7------|----------|-8-8----8--8------|----------------|
 |----------------|----------|------------------|----------------|

PM PM
E E E E E E E E E E E e Q Q E E E E E E E E E E E e Q Q
 
 |-----------------|----------------|------------------|------------------|
 |-----------------|----------------|------------------|------------------|
 |-5-5---5---5-----|----------------|-7-7---7---7------|------------------|
 |-7-7---7---7---9-|---9---7-9--10--|-7-7---7---7---10-|---10---10-10--9--|
 |-7-7---7---7---7-|---7---7-7---7--|-8-8---8---8----8-|----8----7--7--7--|
 |-----------------|----------------|------------------|------------------|

|
| PM PM
| E E E E E E E E E E E e Q Q E E E E E E E E E E E e Q Q
 
 |-----------------|----------------|------------------|------------------|
 |-----------------|----------------|------------------|------------------|
 |-5-5---5---5-----|----------------|-7-7---7---7------|------------------|
 |-7-7---7---7---9-|---9---7-9--10--|-7-7---7---7---10-|---10---10-10--9--|
 |-7-7---7---7---7-|---7---7-7---7--|-8-8---8---8----8-|----8----7--7--7--|
 |-----------------|----------------|------------------|------------------|

7/8
PM
E E E E E E E E E E E e Q Q E E E E E E E E e Q H
 
 |-----------------|----------------|------------------|----------------------|
 |-----------------|----------------|------------------|----------------------|
 |-5-5---5---5-----|----------------|-7-7---7---7------|----------------------|
 |-7-7---7---7---9-|---9---7-9--10--|-7-7---7---7---10-|-10-------------------|
 |-7-7---7---7---7-|---7---7-7---7--|-8-8---8---8----8-|--8-------------------|
 |-----------------|----------------|------------------|----------------------|

|
| PM
| E E E E E E E E E E E e Q Q E E E E E E E E e Q H
 
 |-----------------|----------------|------------------|----------------------|
 |-----------------|----------------|------------------|----------------------|
 |-5-5---5---5-----|----------------|-7-7---7---7------|----------------------|
 |-7-7---7---7---9-|---9---7-9--10--|-7-7---7---7---10-|-10-------------------|
 |-7-7---7---7---7-|---7---7-7---7--|-8-8---8---8----8-|--8-------------------|
 |-----------------|----------------|------------------|----------------------|

|
| Gtr III
| W W W E E E E E E E
 
 |-----------------|----------------|------------------|-------12-------------|
 |-----------------|----------------|------------------|-13-15----13-15-12-13-|
 |-----------------|----------------|------------------|----------------------|
 |-----------------|----------------|------------------|----------------------|
 |-----------------|----------------|------------------|----------------------|
 |-----------------|----------------|------------------|----------------------|

[4/4] Q E E E E E E Q E E E E E E
 
 |-------------------------|-------------------|
 |-------------------------|-------------------|
 |-------------------------|-------------------|
 |-------------------------|-------------------|
 |--7-----7---7---7--7-7-7-|-9--9---9--9-9-9-9-|
 |-------------------------|-------------------|

|
| Q E E Q Q Q E E Q Q
 
 |-------------------------|-------------------|
 |-------------------------|-------------------|
 |--9-----9-/12--11----9---|-9--9-/12-11---9---|
 |-------------------------|-------------------|
 |-------------------------|-------------------|
 |-------------------------|-------------------|

|
| ~~~~
| H +H W
 
 |-------------------------|-------------------|
 |-------------------------|-------------------|
 |-14b16--------(14)-------|-------------------|
 |-------------------------|-------------------|
 |-------------------------|-------------------|
 |-------------------------|-------------------|

Q E E E E E E Q E E E E e E
 
 |-------------------|------------------------|
 |-------------------|------------------------|
 |-------------------|------------------------|
 |-5--5---5--5-5-5-5-|---7---7--7--7--7-5-----|
 |-------------------|------------------------|
 |-------------------|------------------------|

|
| Q E E Q Q Q. E Q. E
 
 |-------------------|------------------------|
 |-------------------|------------------------|
 |-9--9-/12-11---9---|-/14-----12-11------12--|
 |-------------------|------------------------|
 |-------------------|------------------------|
 |-------------------|------------------------|

|
| W W
 
 |-------------------|------------------------|
 |-------------------|------------------------|
 |-------------------|------------------------|
 |-------------------|------------------------|
 |-------------------|------------------------|
 |-------------------|------------------------|

Q E E E E E E Q E E E E E E Q E E E E E E Q E E Q E E
 
 |-------------------|-------------------|-------------------|----------------|
 |-------------------|-------------------|-------------------|----------------|
 |-------------------|-------------------|-------------------|----------------|
 |-------------------|-------------------|-------------------|----------------|
 |-7--7---7--7-7-7-7-|-6--6---6--6-6-6-6-|-------------------|-9--9---9---9---|
 |-------------------|-------------------|-8--8---8--8-8-8-8-|-7--7---7---7---|

|
| Q E E E E E E Q E E E E E E Q E E E E E E Q E E Q E E
 
 |-------------------|-------------------|-------------------|----------------|
 |-------------------|-------------------|-------------------|----------------|
 |-------------------|-------------------|-------------------|----------------|
 |-------------------|-------------------|-------------------|----------------|
 |-7--7---7--7-7-7-7-|-6--6---6--6-6-6-6-|-------------------|-9--9---9---9---|
 |-------------------|-------------------|-8--8---8--8-8-8-8-|-7--7---7---7---|

|
| Q E E Q Q Q E E Q Q Q E E Q Q H Q Q
 
 |-------------------|-------------------|-------------------|----------------|
 |-------------------|-------------------|-------------------|----------------|
 |-9--9-/12-11---9---|-9--9-/12-11---8---|-8--9-/12-11---9---|-8------9--11---|
 |-------------------|-------------------|-------------------|----------------|
 |-------------------|-------------------|-------------------|----------------|
 |-------------------|-------------------|-------------------|----------------|

W W W H. E e
 
 |-----------------|------------------|-----------------|---------------------|
 |-----------------|------------------|-----------------|---------------------|
 |-----------------|------------------|-----------------|---------------------|
 |-9---------------|-12---------------|-7---------------|---5------------5--7-|
 |-7---------------|-10---------------|-5---------------|---3------------3--5-|
 |-----------------|------------------|-----------------|---------------------|

|
| W W W H. E e
 
 |-----------------|------------------|-----------------|---------------------|
 |-----------------|------------------|-----------------|---------------------|
 |-----------------|------------------|-----------------|---------------------|
 |-9---------------|-12---------------|-7---------------|---5------------5--7-|
 |-7---------------|-10---------------|-5---------------|---3------------3--5-|
 |-----------------|------------------|-----------------|---------------------|

|
| Q E E Q Q Q E E Q Q Q E E Q Q Q. E Q. E
 
 |-----------------|------------------|-----------------|---------------------|
 |-----------------|------------------|-----------------|---------------------|
 |-9--9-/12-11--9--|--9--9-/12-11--9--|-9--9-/12-11--9--|-/14----12-11-----12-|
 |-----------------|------------------|-----------------|---------------------|
 |-----------------|------------------|-----------------|---------------------|
 |-----------------|------------------|-----------------|---------------------|

To Coda
W W W Q E E Q Q
 
 |-----------------|-----------------|------------------|------------------|
 |-----------------|-----------------|------------------|------------------|
 |-----------------|-----------------|------------------|------------------|
 |-9---------------|-8---------------|------------------|------------------|
 |-7---------------|-6---------------|-10---------------|-10--10---9---9---|
 |-----------------|-----------------|--8---------------|--7---7---7---7\--|

|
| W W W Q E E Q Q
 
 |-----------------|-----------------|------------------|------------------|
 |-----------------|-----------------|------------------|------------------|
 |-----------------|-----------------|------------------|------------------|
 |-9---------------|-8---------------|------------------|------------------|
 |-7---------------|-6---------------|-10---------------|-10--10---9---9---|
 |-----------------|-----------------|--8---------------|--7---7---7---7\--|

|
| Q E E Q Q Q E E Q Q Q E E Q Q H Q Q
 
 |-----------------|-----------------|------------------|------------------|
 |-----------------|-----------------|------------------|------------------|
 |-9--9-/12-11--9--|-9--9-/12-11--8--|--8--9-/12-11--9--|--8-------9--11---|
 |-----------------|-----------------|------------------|------------------|
 |-----------------|-----------------|------------------|------------------|
 |-----------------|-----------------|------------------|------------------|

[E] [E] [E] [E] [E] [E] [E] [E]  
 
 |--------------------|
 |--------------------|
 |-9---9---9---9------|
 |-7---7---7---7------|
 |-7---7---7---7------|
 |-0---0---0---0------|

|
| E E E E E E E E
 
 |--------------------|
 |--------------------|
 |-9---9---9---9------|
 |-7---7---7---7------|
 |-7---7---7---7------|
 |-0---0---0---0------|
 PM-----------------------------------

[E] [E] [E] [E] [E] [E] [E] [E] [E] [E] [E] [E] [E] [E] [E] [E]  
 
 |-----------------|-------------------|
 |-----------------|-------------------|
 |-5-5-5-5-5-5-5-5-|--5--5-5-5-5-5-5-5-|
 |-7-7-7-7-7-7-7-7-|--7--7-7-7-7-7-7-7-|
 |-7-7-7-7-7-7-7-7-|--7--7-7-7-7-7-7-7-|
 |-----------------|-------------------|

|
 
 | PM-----------------------------------

| E E E E E E E E E E E E E E E E
 
 |-----------------|-------------------|
 |-----------------|-------------------|
 |-5-5-5-5-5-5-5-5-|--5--5-5-5-5-5-5-5-|
 |-7-7-7-7-7-7-7-7-|--7--7-7-7-7-7-7-7-|
 |-7-7-7-7-7-7-7-7-|--7--7-7-7-7-7-7-7-|
 |-----------------|-------------------|

|
| Gtr III
| W +H. E E
 
 |-----------------|-------------------|
 |-----------------|-------------------|
 |-9---------------|-(9)-----------5-7-|
 |-----------------|-------------------|
 |-----------------|-------------------|
 |-----------------|-------------------|
 -------------------------------------------------|

[E] [E] [E] [E] [E] [E] [E] [E] [E] [E] [E] [E] [E] [E] [E] [E]  
 
 |-------------------------|-------------------------|
 |-------------------------|-------------------------|
 |--4--4-4-4-4-4--4------4-|--4------4--4--4-4-4-4-4-|
 |--5--5-5-5-5-5--5------5-|--5------5--5--5-5-5-5-5-|
 |--5--5-5-5-5-5--5------5-|--5------5--5--5-5-5-5-5-|
 |-------------------------|-------------------------|

|
 
 |-------------------------------------------------|

| E E E E E E E E E E E E E E E E
 
 |-------------------------|-------------------------|
 |-------------------------|-------------------------|
 |--4--4-4-4-4-4--4------4-|--4------4--4--4-4-4-4-4-|
 |--5--5-5-5-5-5--5------5-|--5------5--5--5-5-5-5-5-|
 |--5--5-5-5-5-5--5------5-|--5------5--5--5-5-5-5-5-|
 |-------------------------|-------------------------|

|
| H. +Q +Q +Q Q Q
 
 |-------------------------|-------------------------|
 |-------------------------|-------------------------|
 |-/9------------(9)pb10r==|=(9)pb10r==(9)---5---7---|
 |-------------------------|-------------------------|
 |-------------------------|-------------------------|
 |-------------------------|-------------------------|
 PM----------------------|

[E] [E] [E] [E] [E] [E] [E] [E] [E] [E] [E] [E] [E] [E] [E] [E]  
 
 |------------------|-------------------|
 |------------------|-------------------|
 |--5-5-5-5-5-5-5-5-|--5--5-5-5-5-5-5-5s|
 |--3-3-3-3-3-3-3-3-|--3--3-3-3-3-3-3-3s|
 |--3-3-3-3-3-3-3-3-|--3--3-3-3-3-3-3-3s|
 |------------------|-------------------|

|
 
 | PM----------------------|

| E E E E E E E E E E E E E E E E
 
 |------------------|-------------------|
 |------------------|-------------------|
 |--5-5-5-5-5-5-5-5-|--5--5-5-5-5-5-5-5s|
 |--3-3-3-3-3-3-3-3-|--3--3-3-3-3-3-3-3s|
 |--3-3-3-3-3-3-3-3-|--3--3-3-3-3-3-3-3s|
 |------------------|-------------------|

|
| W +H. E E
 
 |------------------|-------------------|
 |------------------|-------------------|
 |-/9---------------|-(9)-----------5-7-|
 |------------------|-------------------|
 |------------------|-------------------|
 |------------------|-------------------|

[E] [E] [E] [E] [E] [E] [E] [E] [E] [E] [E] [E] [E] [E] [E] [E]  
 
 |----------------------|------------------|
 |----------------------|------------------|
 |--9--9-9-9-9-9-9----9-|-9-9-9-9-9-9-9-9--|
 |--7--7-7-7-7-7-7----7-|-6-6-6-6-6-6-6-6--|
 |--7--7-7-7-7-7-7----7-|-7-7-7-7-7-7-7-7--|
 |----------------------|------------------|

|
| E E E E E E E E E E E E E E E E
 
 |----------------------|------------------|
 |----------------------|------------------|
 |--9--9-9-9-9-9-9----9-|-9-9-9-9-9-9-9-9--|
 |--7--7-7-7-7-7-7----7-|-6-6-6-6-6-6-6-6--|
 |--7--7-7-7-7-7-7----7-|-7-7-7-7-7-7-7-7--|
 |----------------------|------------------|

|
| H. S S E W
 
 |----------------------|------------------|
 |----------------------|------------------|
 |-/9------------9h10p9-|-7----------------|
 |----------------------|------------------|
 |----------------------|------------------|
 |----------------------|------------------|

[E] [E] [E] [E] [E] [E] [E] [E] [E] [E] [E] [E] [E] [E] [E] [E]  
 
 |-------------------|-----------------------------|
 |-------------------|-----------------------------|
 |---5-5-5-5-5-5-5-5-|---5--5-5-5---5---5--5-----5-|
 |---7-7-7-7-7-7-7-7-|---7--7-7-7---7---7--7-----7-|
 |---7-7-7-7-7-7-7-7-|---7--7-7-7---7---7--7-----7-|
 |-------------------|-----------------------------|

|
| E E E E E E E E E E E E E E E E
 
 |-------------------|-----------------------------|
 |-------------------|-----------------------------|
 |---5-5-5-5-5-5-5-5-|---5--5-5-5---5---5--5-----5-|
 |---7-7-7-7-7-7-7-7-|---7--7-7-7---7---7--7-----7-|
 |---7-7-7-7-7-7-7-7-|---7--7-7-7---7---7--7-----7-|
 |-------------------|-----------------------------|

|
| W +H +E E S S E
 
 |-/12---------------|-(12)-------(12)-12-12h13p12-|
 |-------------------|-----------------------------|
 |-------------------|-----------------------------|
 |-------------------|-----------------------------|
 |-------------------|-----------------------------|
 |-------------------|-----------------------------|

[E] [E] [E] [E] [E] [E] [E] [E] [E] [E] [E] [E] [E] [E] [E] [E]  
 
 |------------------|----------------------|
 |------------------|----------------------|
 |--4-4-4-4-4-4-4-4-|---4--4-4-4-4-4--4-4--|
 |--5-5-5-5-5-5-5-5-|---5--5-5-5-5-5--5-5--|
 |--5-5-5-5-5-5-5-5-|---5--5-5-5-5-5--5-5--|
 |------------------|----------------------|

|
| E E E E E E E E E E E E E E E E
 
 |------------------|----------------------|
 |------------------|----------------------|
 |--4-4-4-4-4-4-4-4-|---4--4-4-4-4-4--4-4--|
 |--5-5-5-5-5-5-5-5-|---5--5-5-5-5-5--5-5--|
 |--5-5-5-5-5-5-5-5-|---5--5-5-5-5-5--5-5--|
 |------------------|----------------------|

|
| W +H Q Q
 
 |-10---------------|-(10)-------8---10----|
 |------------------|----------------------|
 |------------------|----------------------|
 |------------------|----------------------|
 |------------------|----------------------|
 |------------------|----------------------|

[E] [E] [E] [E] [E] [E] [E] [E] [E] [E] [E] [E] [E] [E] [E] [E]  
 
 |-----------------------|---------------------|
 |-----------------------|---------------------|
 |--5--5--5-5-5-5-5---5--|---5--5-5-5-5-5-5--5s|
 |--3--3--3-3-3-3-3---3--|---3--3-3-3-3-3-3--3s|
 |--3--3--3-3-3-3-3---3--|---3--3-3-3-3-3-3--3s|
 |-----------------------|---------------------|

|
| E E E E E E E E E E E E E E E E
 
 |-----------------------|---------------------|
 |-----------------------|---------------------|
 |--5--5--5-5-5-5-5---5--|---5--5-5-5-5-5-5--5s|
 |--3--3--3-3-3-3-3---3--|---3--3-3-3-3-3-3--3s|
 |--3--3--3-3-3-3-3---3--|---3--3-3-3-3-3-3--3s|
 |-----------------------|---------------------|

|
| E H. +E +H. E E
 
 |-10S12------------(12)-|-(12)-----------8-10-|
 |-----------------------|---------------------|
 |-----------------------|---------------------|
 |-----------------------|---------------------|
 |-----------------------|---------------------|
 |-----------------------|---------------------|

[E] [E] [E] [E] [E] [E] [E] [E] [E] [E] [E] [E] [E] [E] [E] [E]  
 
 |-------------------------|----------------------|
 |-------------------------|----------------------|
 |---9--9-9-9-9-9--9-----9-|-9----9-9-9--9-9-9-9--|
 |---7--7-7-7-7-7--7-----7-|-6----6-6-6--6-6-6-6--|
 |---7--7-7-7-7-7--7-----7-|-7----7-7-7--7-7-7-7--|
 |-------------------------|----------------------|

|
| E E E E E E E E E E E E E E E E
 
 |-------------------------|----------------------|
 |-------------------------|----------------------|
 |---9--9-9-9-9-9--9-----9-|-9----9-9-9--9-9-9-9--|
 |---7--7-7-7-7-7--7-----7-|-6----6-6-6--6-6-6-6--|
 |---7--7-7-7-7-7--7-----7-|-7----7-7-7--7-7-7-7--|
 |-------------------------|----------------------|

|
| H. S S E H H
 
 |-/12------------12h13p12-|-8b10-------10--------|
 |-------------------------|----------------------|
 |-------------------------|----------------------|
 |-------------------------|----------------------|
 |-------------------------|----------------------|
 |-------------------------|----------------------|

E E E E E Q. W E E E E E Q. W
 
 |----------------------|----------------|----------------------------|---------|
 |----------------------|----------------|----------------------------|---------|
 |-5--5-----------------|----------------|--7-----7-------------------|---------|
 |-7--7---9-9-----------|----------------|--7-----7----10-10----------|---------|
 |-7--7---7-7-----------|----------------|--8-----8-----8--8----------|---------|
 |----------------------|----------------|----------------------------|---------|

|
| E E E E E Q. W E E E E E Q. W
 
 |----------------------|----------------|----------------------------|---------|
 |----------------------|----------------|----------------------------|---------|
 |-5--5-----------------|----------------|--7-----7-------------------|---------|
 |-7--7---9-9-----------|----------------|--7-----7----10-10----------|---------|
 |-7--7---7-7-----------|----------------|--8-----8-----8--8----------|---------|
 |----------------------|----------------|----------------------------|---------|

|
| ~~~~
| H. Q +H. E E E E E E E E E E +W
 
 |---------------10b12--|-(10)------8-10-|-10b12-12-12-12-12-10--8-10-|-(10)----|
 |----------------------|----------------|----------------------------|---------|
 |----------------------|----------------|----------------------------|---------|
 |----------------------|----------------|----------------------------|---------|
 |----------------------|----------------|----------------------------|---------|
 |----------------------|----------------|----------------------------|---------|

E E E E E Q. W
 
 |--------------------------|---------------------|
 |--------------------------|---------------------|
 |--5--5--------------------|---------------------|
 |--7--7-----9--9-----------|---------------------|
 |--7--7-----7--7-----------|---------------------|
 |--------------------------|---------------------|

|
| E E E E E Q. W
 
 |--------------------------|---------------------|
 |--------------------------|---------------------|
 |--5--5--------------------|---------------------|
 |--7--7-----9--9-----------|---------------------|
 |--7--7-----7--7-----------|---------------------|
 |--------------------------|---------------------|

|
| ~~~~~~~~~~~
| E E E E E E E E E E E H +E
 
 |-------20----19-20--19-17-|---------------------|
 |--------------------------|-20-17-20-17----(17)-|
 |-17-19----19--------------|---------------------|
 |--------------------------|---------------------|
 |--------------------------|---------------------|
 |--------------------------|---------------------|

D.S. al Coda
E E E E E Q. Q. Q. Q
 
 |-----------------------------|---------------------|
 |-----------------------------|---------------------|
 |--7------7-------------------|-------10-----9------|
 |--7------7----10-10----------|-------12----10------|
 |--8------8-----8--8----------|---------------------|
 |-----------------------------|---------------------|

|
| E E E E E Q. Q. Q. Q
 
 |-----------------------------|---------------------|
 |-----------------------------|---------------------|
 |--7------7-------------------|-------10-----9------|
 |--7------7----10-10----------|-------12----10------|
 |--8------8-----8--8----------|---------------------|
 |-----------------------------|---------------------|

|
|~~~~~~~~~~~~ ~~~~~~~~~~~~~
| E +H E E E Q. H +E
 
 |-20b22-(20)---------20--19---|-19----20-------(20)-|
 |-----------------------------|---------------------|
 |-----------------------------|---------------------|
 |-----------------------------|---------------------|
 |-----------------------------|---------------------|
 |-----------------------------|---------------------|

&
 
 PM--------------------| PM--------------------|

Q S S S S S S S S S S S S Q S S S S S S S S S S S S
 
 |----------------------------|----------------------------|
 |----------------------------|----------------------------|
 |----------------------------|----------------------------|
 |----------------------------|----------------------------|
 |-7--------------------------|-9--------------------------|
 |----0---0-0-0-0-0-0-0-0-0-0-|----0---0-0-0-0-0-0-0-0-0-0-|

|
 
 | PM--------------------| PM--------------------|

| Q S S S S S S S S S S S S Q S S S S S S S S S S S S
 
 |----------------------------|----------------------------|
 |----------------------------|----------------------------|
 |----------------------------|----------------------------|
 |----------------------------|----------------------------|
 |-7--------------------------|-9--------------------------|
 |----0---0-0-0-0-0-0-0-0-0-0-|----0---0-0-0-0-0-0-0-0-0-0-|
 PM--------------------| PM--------|

Q S S S S S S S S S S S S Q S S S S S S E E E
 
 |-----------------------------|----------------------------|
 |-----------------------------|----------------------------|
 |-----------------------------|----------------------------|
 |-----------------------------|----------------------------|
 |-10--------------------------|-12--------------12-10------|
 |-----0---0-0-0-0-0-0-0-0-0-0-|-----0---0-0-0-0------------|

|
 
 | PM--------------------| PM--------|

| Q S S S S S S S S S S S S Q S S S S S S E E E
 
 |-----------------------------|----------------------------|
 |-----------------------------|----------------------------|
 |-----------------------------|----------------------------|
 |-----------------------------|----------------------------|
 |-10--------------------------|-12--------------12-10------|
 |-----0---0-0-0-0-0-0-0-0-0-0-|-----0---0-0-0-0------------|
 PM--------------------| PM--------------------|

Q S S S S S S S S S S S S Q S S S S S S S S S S S S
 
 |----------------------------|----------------------------|
 |----------------------------|----------------------------|
 |----------------------------|----------------------------|
 |----------------------------|----------------------------|
 |-7--------------------------|-6--------------------------|
 |----0---0-0-0-0-0-0-0-0-0-0-|----0---0-0-0-0-0-0-0-0-0-0-|

|
 
 | PM--------------------| PM--------------------|

| Q S S S S S S S S S S S S Q S S S S S S S S S S S S
 
 |----------------------------|----------------------------|
 |----------------------------|----------------------------|
 |----------------------------|----------------------------|
 |----------------------------|----------------------------|
 |-7--------------------------|-6--------------------------|
 |----0---0-0-0-0-0-0-0-0-0-0-|----0---0-0-0-0-0-0-0-0-0-0-|
 PM--------------------|

Q S S S S S S S S S S S S Q E E Q E E
 
 |----------------------------|------------------|
 |----------------------------|------------------|
 |----------------------------|------------------|
 |----------------------------|------------------|
 |----------------------------|-10--10---9--9----|
 |-8--0---0-0-0-0-0-0-0-0-0-0-|--7---7---7--7----|

|
 
 | PM--------------------|

| Q S S S S S S S S S S S S Q E E Q E E
 
 |----------------------------|------------------|
 |----------------------------|------------------|
 |----------------------------|------------------|
 |----------------------------|------------------|
 |----------------------------|-10--10---9--9----|
 |-8--0---0-0-0-0-0-0-0-0-0-0-|--7---7---7--7----|
 PM--------------------| PM--------------------|

Q S S S S S S S S S S S S Q S S S S S S S S S S S S
 
 |------------------------------|------------------------------|
 |------------------------------|------------------------------|
 |------------------------------|------------------------------|
 |------------------------------|------------------------------|
 |---7--------------------------|---9--------------------------|
 |------0---0-0-0-0-0-0-0-0-0-0-|------0---0-0-0-0-0-0-0-0-0-0-|

|
 
 | PM--------------------| PM--------------------|

| Q S S S S S S S S S S S S Q S S S S S S S S S S S S
 
 |------------------------------|------------------------------|
 |------------------------------|------------------------------|
 |------------------------------|------------------------------|
 |------------------------------|------------------------------|
 |---7--------------------------|---9--------------------------|
 |------0---0-0-0-0-0-0-0-0-0-0-|------0---0-0-0-0-0-0-0-0-0-0-|

|
| Gtr III
| ~~~~~~~~~~~~~~~~~~~~~~~~~~~~~~~~~~~~~~~~~~~~~~~~~~~~~~~~~~~
| W W
 
 |------------------------------|------------------------------|
 |-/17--------------------------|-/19--------------------------|
 |------------------------------|------------------------------|
 |------------------------------|------------------------------|
 |------------------------------|------------------------------|
 |------------------------------|------------------------------|
 PM--------------------| PM--------|

Q S S S S S S S S S S S S Q S S S S S S E E E
 
 |------------------------------|-----------------------------|
 |------------------------------|-----------------------------|
 |------------------------------|-----------------------------|
 |------------------------------|-----------------------------|
 |--10--------------------------|--12--------------12-10------|
 |------0---0-0-0-0-0-0-0-0-0-0-|------0---0-0-0-0------------|

|
 
 | PM--------------------| PM--------|

| Q S S S S S S S S S S S S Q S S S S S S E E E
 
 |------------------------------|-----------------------------|
 |------------------------------|-----------------------------|
 |------------------------------|-----------------------------|
 |------------------------------|-----------------------------|
 |--10--------------------------|--12--------------12-10------|
 |------0---0-0-0-0-0-0-0-0-0-0-|------0---0-0-0-0------------|

|
|~~~~~~~~~~~~~~~~~~~~~~~~~~~~~~~~~~~~
| W W
 
 |------------------------------|-----------------------------|
 |-/20--------------------------|-/22-------------------------|
 |------------------------------|-----------------------------|
 |------------------------------|-----------------------------|
 |------------------------------|-----------------------------|
 |------------------------------|-----------------------------|
 PM----------------------| PM-----------------------------|

Q S S S S S S S S S S S S Q S S S S S S S S S S S S
 
 |--------------------------------------|------------------------------------------------|
 |--------------------------------------|------------------------------------------------|
 |--------------------------------------|------------------------------------------------|
 |--------------------------------------|------------------------------------------------|
 |--7-----------------------------------|---6--------------------------------------------|
 |------------0----0-0--0-0-0-0-0-0-0-0-|--------------0----0--0--0--0--0--0--0--0--0--0-|

|
 
 | PM----------------------| PM-----------------------------|

| Q S S S S S S S S S S S S Q S S S S S S S S S S S S
 
 |--------------------------------------|------------------------------------------------|
 |--------------------------------------|------------------------------------------------|
 |--------------------------------------|------------------------------------------------|
 |--------------------------------------|------------------------------------------------|
 |--7-----------------------------------|---6--------------------------------------------|
 |------------0----0-0--0-0-0-0-0-0-0-0-|--------------0----0--0--0--0--0--0--0--0--0--0-|

|
| ~~
| E +Q E H E +E E S S S S S S S S S S
 
 |-17b19-(17)-----17--------------------|------------------------15----------------15----|
 |---------------------17---------------|-/16b17-(16)-16---15-------17-18-17----------17-|
 |--------------------------------------|---------------------16-------------17-16-------|
 |--------------------------------------|------------------------------------------------|
 |--------------------------------------|------------------------------------------------|
 |--------------------------------------|------------------------------------------------|
 PM----------------------------|

Q S S S S S S S S S S S S
 
 |--------------------------------------------------|
 |--------------------------------------------------|
 |--------------------------------------------------|
 |--------------------------------------------------|
 |--------------------------------------------------|
 |--8-----------0-----0--0--0--0----0-0-0-0-0---0---|

|
 
 | PM----------------------------|

| Q S

Important: The song above is NOT stored on the Chordie server. The original song is hosted at www.guitaretab.com. Chordie works as a search engine and provides on-the-fly formatting. Chordie does not index songs against artists'/composers' will. To remove this song please click here.

Text color:
Chord color:
Chord grids: 
Font size:    
Page size: 

E
Rate #1 of 1 versions

Login - add to songbook

SHARE PAGE  




You need to log in to post comments