Guitar Tabs, Chords and Lyrics
Major upgrade!! After one year development the new version of Chordie is now online! Please give feedback.


Blood on Your Hands  Arch Enemy

As recorded by Arch Enemy
(Released as a Single in 2007)
Transcribed by Jake Peterson
Gtr I (C F Bb Eb G C) - 'Skye Chapman'
Gtr II (C F Bb Eb G C) - 'Jake Peterson'
Gtr III (C F Bb Eb G C) - 'Skye Lead'
Gtr IV (C F Bb Eb G C) - 'Jake lead'
Intro
Q=160
N.C.
[4/4] Gtr I
S S S S S S S S S S S S S S S S S S S S S S S S S S S S S S S S
 
 |---------------------------------|---------------------------------|
 |---------------------------------|-----------------1p0-------------|
 |-1p0---------3p0-1p0-------------|-1p0---------1p0-----3p0-1p0-----|
 |-----3p0-1p0---------3p0-1p0-5p0-|-----3p0-1p0-----------------5p0-|
 |---------------------------------|---------------------------------|
 |---------------------------------|---------------------------------|

[G5]S S S S S S S S S S S S S S S S S S S S S S S S S S S S S S S S
 
 |---------------------------------|------------------------------------|
 |---------------------------------|-----------------1p0----------------|
 |-1p0---------3p0-1p0-------------|-1p0---------1p0-----3p0--1p==0-----|
 |-----3p0-1p0---------3p0-1p0-5p0-|-----3p0-1p0--------------------5p0-|
 |---------------------------------|------------------------------------|
 |---------------------------------|------------------------------------|

|
| Gtr II
| E E E E E E E E E E E E Q +Q
 
 |---------------------------------|------------------------------------|
 |---------------------------------|------------------------------------|
 |-7-------7-------7-------7-------|-7-------7-------7-------(7)\-------|
 |-5-------5-------5-------5-------|-5-------5-------5-------(5)\-------|
 |-5-------5-------5-------5-------|-5-------5-------5-------(5)\-------|
 |-3-------3-------3-------3-------|-3-------3-------3-------(3)\-------|

N.C.
S S S S S S S S S S S S S S S S S S S S S S S S S S S S S S S S 4x
 
 ||----------------------------------|----------------------------------||
 ||o---------------------------------|-----------------1p0-------------o||
 ||--1p0---------3p0-1p0-------------|-1p0---------1p0-----3p0-1p0------||
 ||------3p0-1p0---------3p0-1p0-5p0-|-----3p0-1p0-----------------5p0--||
 ||o---------------------------------|---------------------------------o||
 ||----------------------------------|----------------------------------||

|
| S S S S S S S S S S S S S S S S S S S S S S S S S S S S S S S S 4x
 
 ||----------------------------------|----------------------------------||
 ||o-1p0---------3p0-1p0-------------|-1p0---------1p0-4p3-3p0-1p0-----o||
 ||------3p0-1p0---------3p0-1p0-5p0-|-----3p0-1p0-----------------5p0--||
 ||----------------------------------|----------------------------------||
 ||o---------------------------------|---------------------------------o||
 ||----------------------------------|----------------------------------||

Main Riff
Gtrs I, II
PM PM PM PM PM PM PM PM PM PM
E S S S S S S S S S S S S S S E S S S S S S S S S S S S S S
 
 |-------------------------------|--------------------------------|
 |-------------------------------|--------------------------------|
 |-------------------------------|--------------------------------|
 |---7p5---7p5---7p5---7p5---7p5-|---7p5---7p5---8p7---10p8---8p7-|
 |-0-----0-----0-----0-----0-----|-0-----0-----0-----0------0-----|
 |-------------------------------|--------------------------------|

PM PM PM PM PM PM PM PM PM PM
E S S S S S S S S S S S S S S E S S S S S S S S S S S S S S
 
 |-------------------------------|-----------------------------------|
 |-------------------------------|-----------------------------------|
 |-------------------------------|-----------------------------------|
 |---7p5---7p5---7p5---7p5---7p5-|---7p5---7p5---8p7---10p8---12p10--|
 |-0-----0-----0-----0-----0-----|-0-----0-----0-----0------0--------|
 |-------------------------------|-----------------------------------|

PM PM PM PM PM PM PM PM PM PM
E S S S S S S S S S S S S S S E S S S S S S S S S S S S S S
 
 |-------------------------------|---------------------------------|
 |-------------------------------|---------------------------------|
 |-------------------------------|---------------------------------|
 |---7p5---7p5---7p5---7p5---7p5-|---7p5---7p5---8p7---10p8---8p7--|
 |-0-----0-----0-----0-----0-----|-0-----0-----0-----0------0------|
 |-------------------------------|---------------------------------|

Gtr I
PM PM PM PM PM PM| PM| PM| ~~~
E S S S S S S S S S S S S S S S S S S S S S S S S S S Q
 
 |-------------------------------|------------------------------------|
 |-------------------------------|------------------------------------|
 |-------------------------------|--8p5-------8p5-------8p5-----------|
 |---7p5---7p5---7p5---7p5---7p5-|-------7-4-------7-4-------7-4-[4]--|
 |-0-----0-----0-----0-----0-----|------------------------------------|
 |-------------------------------|------------------------------------|

|
| Gtr II
| PM PM PM PM PM PM| PM| PM| ~~~
| E S S S S S S S S S S S S S S S S S S S S S S S S S S Q
 
 |-------------------------------|------------------------------------|
 |-------------------------------|------------------------------------|
 |-------------------------------|-11p8------11p8------11p8-----------|
 |---7p5---7p5---7p5---7p5---7p5-|------10-7------10-7------10-7-[7]--|
 |-0-----0-----0-----0-----0-----|------------------------------------|
 |-------------------------------|------------------------------------|

Verse
Gtrs I, II
PM PM PM PM PM PM PM PM PM PM
E S S S S S S S S S S S S S S E S S S S S S S S S S S S S S
 
 |-------------------------------|---------------------------------|
 |-------------------------------|---------------------------------|
 |-------------------------------|---------------------------------|
 |---7p5---7p5---7p5---7p5---7p5-|---7p5---7p5---8p7---10p8---8p7--|
 |-0-----0-----0-----0-----0-----|-0-----0-----0-----0------0------|
 |-------------------------------|---------------------------------|

PM PM PM PM PM PM PM PM PM PM
E S S S S S S S S S S S S S S E S S S S S S S S S S S S S S
 
 |-------------------------------|-----------------------------------|
 |-------------------------------|-----------------------------------|
 |-------------------------------|-----------------------------------|
 |---7p5---7p5---7p5---7p5---7p5-|---7p5---7p5---8p7---10p8---12p10--|
 |-0-----0-----0-----0-----0-----|-0-----0-----0-----0------0--------|
 |-------------------------------|-----------------------------------|

PM PM PM PM PM PM PM PM PM PM
E S S S S S S S S S S S S S S E S S S S S S S S S S S S S S
 
 |-------------------------------|---------------------------------|
 |-------------------------------|---------------------------------|
 |-------------------------------|---------------------------------|
 |---7p5---7p5---7p5---7p5---7p5-|---7p5---7p5---8p7---10p8---8p7--|
 |-0-----0-----0-----0-----0-----|-0-----0-----0-----0------0------|
 |-------------------------------|---------------------------------|

Gtr I
PM PM PM PM PM PM| PM| PM| ~~~
E S S S S S S S S S S S S S S S S S S S S S S S S S S Q
 
 |-------------------------------|------------------------------------|
 |-------------------------------|------------------------------------|
 |-------------------------------|--8p5-------8p5-------8p5-----------|
 |---7p5---7p5---7p5---7p5---7p5-|-------7-4-------7-4-------7-4-[4]--|
 |-0-----0-----0-----0-----0-----|------------------------------------|
 |-------------------------------|------------------------------------|

|
| Gtr II
| PM PM PM PM PM PM| PM| PM| ~~~
| E S S S S S S S S S S S S S S S S S S S S S S S S S S Q
 
 |-------------------------------|------------------------------------|
 |-------------------------------|------------------------------------|
 |-------------------------------|-11p8------11p8------11p8-----------|
 |---7p5---7p5---7p5---7p5---7p5-|------10-7------10-7------10-7-[7]--|
 |-0-----0-----0-----0-----0-----|------------------------------------|
 |-------------------------------|------------------------------------|

Pre-Verse
S S S S S S S S S S S S S S S S S S S S S S S S S S S S S S S S
 
 ||----------------------------------|-----------------------------------||
 ||o---------------------------------|-----------------1p0--------------o||
 ||--1p0---------3p0-1p0-------------|-1p0---------1p0-----3p0-1p0-------||
 ||------3p0-1p0---------3p0-1p0-5p0-|-----3p0-1p0-----------------5p0---||
 ||o---------------------------------|----------------------------------o||
 ||----------------------------------|-----------------------------------||

|
| S S S S S S S S S S S S S S S S S S S S S S S S S S S S S S S S
 
 ||----------------------------------|-----------------------------------||
 ||o-1p0---------3p0-1p0-------------|-1p0---------1p0-4p3-3p0-1p0------o||
 ||------3p0-1p0---------3p0-1p0-5p0-|-----3p0-1p0-----------------5p0---||
 ||----------------------------------|-----------------------------------||
 ||o---------------------------------|----------------------------------o||
 ||----------------------------------|-----------------------------------||

Verse
Gtrs I, II
PM PM PM PM PM PM PM PM PM PM
E S S S S S S S S S S S S S S E S S S S S S S S S S S S S S
 
 |-------------------------------|---------------------------------|
 |-------------------------------|---------------------------------|
 |-------------------------------|---------------------------------|
 |---7p5---7p5---7p5---7p5---7p5-|---7p5---7p5---8p7---10p8---8p7--|
 |-0-----0-----0-----0-----0-----|-0-----0-----0-----0------0------|
 |-------------------------------|---------------------------------|

PM PM PM PM PM PM PM PM PM PM
E S S S S S S S S S S S S S S E S S S S S S S S S S S S S S
 
 |-------------------------------|-----------------------------------|
 |-------------------------------|-----------------------------------|
 |-------------------------------|-----------------------------------|
 |---7p5---7p5---7p5---7p5---7p5-|---7p5---7p5---8p7---10p8---12p10--|
 |-0-----0-----0-----0-----0-----|-0-----0-----0-----0------0--------|
 |-------------------------------|-----------------------------------|

PM PM PM PM PM PM PM PM PM PM
E S S S S S S S S S S S S S S E S S S S S S S S S S S S S S
 
 |-------------------------------|---------------------------------|
 |-------------------------------|---------------------------------|
 |-------------------------------|---------------------------------|
 |---7p5---7p5---7p5---7p5---7p5-|---7p5---7p5---8p7---10p8---8p7--|
 |-0-----0-----0-----0-----0-----|-0-----0-----0-----0------0------|
 |-------------------------------|---------------------------------|

Gtr I
PM PM PM PM PM PM| PM| PM| ~~~
E S S S S S S S S S S S S S S S S S S S S S S S S S S Q
 
 |-------------------------------|------------------------------------|
 |-------------------------------|------------------------------------|
 |-------------------------------|--8p5-------8p5-------8p5-----------|
 |---7p5---7p5---7p5---7p5---7p5-|-------7-4-------7-4-------7-4-[4]--|
 |-0-----0-----0-----0-----0-----|------------------------------------|
 |-------------------------------|------------------------------------|

|
| Gtr II
| PM PM PM PM PM PM| PM| PM| ~~~
| E S S S S S S S S S S S S S S S S S S S S S S S S S S Q
 
 |-------------------------------|------------------------------------|
 |-------------------------------|------------------------------------|
 |-------------------------------|-11p8------11p8------11p8-----------|
 |---7p5---7p5---7p5---7p5---7p5-|------10-7------10-7------10-7-[7]--|
 |-0-----0-----0-----0-----0-----|------------------------------------|
 |-------------------------------|------------------------------------|

Pre-Chorus
$
[A5C5D5EbD5C5]Gtrs I, II[A5] [A5C5D5EbD5C5] [A5EbD5C5D5C5]
 
 |-3-| |-3-| |-3-| |-3-| |-3-| |-3-|

Q Q Q Q Q Q Q Q H Q Q Q Q Q Q Q Q Q Q Q Q
 
 |-------------|------------|-------------|-------------|
 |-------------|------------|-------------|-------------|
 |-------------|------------|-------------|-9-----------|
 |-2-5-7-8-7-5-|-2----------|-2-5-7-8-7-5-|-7-8-7-5-7-5-|
 |-0-3-5-6-5-3-|-0----------|-0-3-5-6-5-3-|---6-5-3-5-3-|
 |-------------|------------|-------------|-------------|

A5C5D5EbD5C5 N.C. A5C5D5EbD5C5 A5EbD5G#D5C#5
Gtr I
PM| PM PM| PM
 
 |-3-| |-3-| |-3-| |-3-| |-3-| |-3-|

Q Q Q Q Q Q E S E S E E S E S E Q Q Q Q Q Q Q Q Q Q Q Q
 
 |-------------|-----------------------|-------------|--------------||
 |-------------|-----------------------|-------------|--------------||
 |-------------|-----------------------|-------------|-9-----8------||
 |-2-5-7-8-7-5-|-----10---10-----9---9-|-2-5-7-8-7-5-|-7-8-7-6-7-6--||
 |-0-3-5-6-5-3-|-0-0----0----0-0---0---|-0-3-5-6-5-3-|---6-5---5-4--||
 |-------------|-----------------------|-------------|--------------||

|
| Gtr II
| PM| PM PM| PM
 
 | |-3-| |-3-| |-3-| |-3-| |-3-| |-3-|

| Q Q Q Q Q Q E S E S E E S E S E Q Q Q Q Q Q Q Q Q Q Q Q
 
 |-------------|-----------------------|-------------|--------------||
 |-------------|-----------------------|-------------|--------------||
 |-------------|-----------------------|-------------|-9-----8------||
 |-2-5-7-8-7-5-|------7----7-----6---6-|-2-5-7-8-7-5-|-7-8-7-6-7-6--||
 |-0-3-5-6-5-3-|-0-0----0----0-0---0---|-0-3-5-6-5-3-|---6-5---5-4--||
 |-------------|-----------------------|-------------|--------------||

Chorus
[(B)] [(A)]  
 
 PM----| PM----| PM--------------| PM----| PM----|

S S S S E S S S S E S S S S S S S S E S S S S E S S S S
 
 ||------------------------------|-----------------------------|
 ||o-----------------------------|-----------------------------|
 ||----------4---------4---------|---------4---------4---------|
 ||------------------------------|-----------------------------|
 ||o-2-2-2-2---2-2-2-2---2-2-2-2-|-0-0-0-0---0-0-0-0---0-0-0-0-|
 ||------------------------------|-----------------------------|

|
 
 | PM----| PM----| PM--------------| PM----| PM----|

| S S S S E S S S S E S S S S S S S S E S S S S E S S S S
 
 ||------------------------------|-----------------------------|
 ||o---------3---------3---------|---------3---------3---------|
 ||------------------------------|-----------------------------|
 ||------------------------------|-----------------------------|
 ||o-2-2-2-2---2-2-2-2---2-2-2-2-|-0-0-0-0---0-0-0-0---0-0-0-0-|
 ||------------------------------|-----------------------------|

1. 2.
[(G)] [(E)] [(F#)] [E5] [F#5]  
 
 PM----| PM----| PM--------------| PM----| PM----|

S S S S E S S S S E S S S S S S S S E S S S S E S S S S H H
 
 |-----------------------------|------------------------------||-----------|
 |-----------------------------|-----------------------------o||-----------|
 |-----------------------------|------------------------------||-----------|
 |---------5---------5---------|---------2---------4----------||-2----4----|
 |-----------------------------|-----------------------------o||-2----4----|
 |-3-3-3-3---3-3-3-3---3-3-3-3-|-0-0-0-0---0-0-2-2---2-2-2-2--||-0----2----|

|
 
 | PM----| PM----| PM--------------| PM----| PM----|

| S S S S E S S S S E S S S S S S S S E S S S S E S S S S H H
 
 |-----------------------------|------------------------------||-----------|
 |-----------------------------|-----------------------------o||-----------|
 |---------4---------4---------|-------------------2----------||-----------|
 |-----------------------------|---------5--------------------||-2----4----|
 |-----------------------------|-----------------------------o||-2----4----|
 |-3-3-3-3---3-3-3-3---3-3-3-3-|-0-0-0-0---0-0-2-2---2-2-2-2--||-0----2----|

Chorus (Instrumental Part)
[B5]Gtrs I, II[A] [G5]
PM| PM|
Q E E E q E +Q E E E q E
 
 |------------------|----------------------|
 |------------------|----------------------|
 |------------------|----------------------|
 |-4---4-------4----|----------------------|
 |-2---2--2--2-2--4-|-(4)--4---------4---5-|
 |----------------5-|-(5)--5--5---5--5---3-|

|
| Gtr III
| ~ ~~~ ~~~~
| Q. E E Q E +Q E E +Q E E
 
 |----------10-9--9-|-(9)--7-----------7---|
 |-------/7---------|--------10-(10)-------|
 |------------------|--------------------9-|
 |------------------|----------------------|
 |------------------|----------------------|
 |------------------|----------------------|

PM| [E5] PM[F#5] PM--|
+Q E E E q E +E E E Q E E S S
 
 |------------------|-----------------------|
 |------------------|-----------------------|
 |------------------|-----------------------|
 |----------------9-|-(9)-9---11---11-------|
 |-(5)--5-----5---7-|-(7)-7-7--9----9-9-2-2-|
 |-(3)--3-3-3-3-----|-----------------------|

|
| ~~~ ~~~
| +H. E E +Q E Q. E E
 
 |------------------|-----------------------|
 |--------------7---|-----------------7-----|
 |-(9)------------9-|-(9)---7--9------------|
 |------------------|-------------------9---|
 |------------------|-----------------------|
 |------------------|-----------------------|

[B5] PM| [A] PM|[E5]
Q E E E q E +Q E E E q E
 
 |-------------------|-------------------|
 |-------------------|-------------------|
 |-------------------|-------------------|
 |--4---4-------4----|-----------------9-|
 |--2---2--2--2-2--4-|-(4)--4------4---7-|
 |-----------------5-|-(5)--5--5-5-5-----|

|
| ~ ~~~ ~~ ~~~~~
| +Q. E E Q E +Q E Q E Q
 
 |-----------10-9--9-|-(9)--7------7-9---|
 |--------/7---------|--------10---------|
 |-------------------|-------------------|
 |-(9)---------------|-------------------|
 |-------------------|-------------------|
 |-------------------|-------------------|

PM| [G5] PM[D/F#] PM PM
+Q E E E q E +E E E Q E E E
 
 |------------------|--------------------------------|
 |------------------|--------------------------------|
 |------------------|--------------------------------|
 |-(9)--9-----9--12-|-(12)-12----------12-----12-----|
 |-(7)--7-7-7-7--10-|-(10)-10-------10--9---9--9--9--|
 |------------------|--------------------------------|

|
|~~~~~
| |--3--|
| W E S S S E Q E E E
 
 |--7---------------|--14--10h14p10----10-----10-12--|
 |------------------|---------------12-----12--------|
 |------------------|--------------------------------|
 |------------------|--------------------------------|
 |------------------|--------------------------------|
 |------------------|--------------------------------|

To Coda
[D#5]W +W
 
 |--------------|--------------||
 |--------------|--------------||
 |-8------------|-(8)----------||
 |-8------------|-(8)----------||
 |-6------------|-(6)----------||
 |--------------|--------------||

|
| ~~~~
| W +H. Q
 
 |-9b11=========|=(9)r---------||
 |--------------|--------------||
 |--------------|--------------||
 |--------------|--------------||
 |--------------|--------------||
 |--------------|--------------||

Verse
N.C.
PM PM PM PM PM PM PM PM PM PM
E S S S S S S S S S S S S S S E S S S S S S S S S S S S S S
 
 ||--------------------------------||---------------------------------|
 ||o-------------------------------||---------------------------------|
 ||--------------------------------||---------------------------------|
 ||----7p5---7p5---7p5---7p5---7p5-||---7p5---7p5---8p7---10p8---8p7--|
 ||o-0-----0-----0-----0-----0-----||-0-----0-----0-----0------0------|
 ||--------------------------------||---------------------------------|

PM PM PM PM PM PM PM PM PM PM
E S S S S S S S S S S S S S S E S S S S S S S S S S S S S S
 
 |-------------------------------|-----------------------------------|
 |-------------------------------|-----------------------------------|
 |-------------------------------|-----------------------------------|
 |---7p5---7p5---7p5---7p5---7p5-|---7p5---7p5---8p7---10p8---12p10--|
 |-0-----0-----0-----0-----0-----|-0-----0-----0-----0------0--------|
 |-------------------------------|-----------------------------------|

PM PM PM PM PM PM PM PM PM PM
E S S S S S S S S S S S S S S E S S S S S S S S S S S S S S
 
 |-------------------------------|---------------------------------|
 |-------------------------------|---------------------------------|
 |-------------------------------|---------------------------------|
 |---7p5---7p5---7p5---7p5---7p5-|---7p5---7p5---8p7---10p8---8p7--|
 |-0-----0-----0-----0-----0-----|-0-----0-----0-----0------0------|
 |-------------------------------|---------------------------------|

D.S. al Coda
Gtr I
PM PM PM PM PM PM| PM| PM| ~~~
E S S S S S S S S S S S S S S S S S S S S S S S S S S Q
 
 |-------------------------------|-------------------------------------||
 |-------------------------------|------------------------------------o||
 |-------------------------------|--8p5-------8p5-------8p5------------||
 |---7p5---7p5---7p5---7p5---7p5-|-------7-4-------7-4-------7-4-[4]---||
 |-0-----0-----0-----0-----0-----|------------------------------------o||
 |-------------------------------|-------------------------------------||

|
| Gtr IV
| PM PM PM PM PM PM| PM| PM| ~~~
| E S S S S S S S S S S S S S S S S S S S S S S S S S S Q
 
 |-------------------------------|-------------------------------------||
 |-------------------------------|------------------------------------o||
 |-------------------------------|-11p8------11p8------11p8------------||
 |---7p5---7p5---7p5---7p5---7p5-|------10-7------10-7------10-7-[7]---||
 |-0-----0-----0-----0-----0-----|------------------------------------o||
 |-------------------------------|-------------------------------------||

Guitar Solo - Christopher
&
[E5] [G5A5Bb5] [A5G5]  
 
 PM----------------------------------|
 |-3--| |--3---|

Q Q Q Q Q Q E S E S E E S E S E
 
 |-------------------|-------------------------------------------|
 |-------------------|-------------------------------------------|
 |-------------------|-------------------------------------------|
 |-------------------|-------------------------------------------|
 |-2--5-7--8----7-5--|-------------------------------------------|
 |-0--3-5--6----5-3--|--0----0--0----0--0----0----0--0----0--0---|

|
| Gtr IV
| \1
| ~~~~~
| H H S S S S S S S S S S S S S S S S
 
 |-------------------|-15p12p0-10h12p0-10p7-15p12p0-10h12p0-10p7-|
 |--------15b17------|-------------------------------------------|
 |-------------------|-------------------------------------------|
 |-------------------|-------------------------------------------|
 |-------------------|-------------------------------------------|
 |-0-----------------|-------------------------------------------|

[E5] [G5] [A5] [BbA5G5]  
 
 |-------3-------| |-3-|

Q Q Q Q Q Q
 
 |--------------------------------|
 |--------------------------------|
 |--------------------------------|
 |--------------------------------|
 |--2------5--------7------8-7-5--|
 |--0------3--------5------6-5-3--|

|
| ~
| S S S S S S S S H
 
 |-14p10p0---9h10p0h==9-----------|
 |----------------------10-8------|
 |--------------------------------|
 |--------------------------------|
 |--------------------------------|
 |--------------------------------|
 PM---------------------------------------|

E S E S E E S E S E
 
 |----------------------------------------------------|
 |----------------------------------------------------|
 |----------------------------------------------------|
 |----------------------------------------------------|
 |----------------------------------------------------|
 |--0-----0--0-----0--0-----0-----0--0-----0--0-------|

|
| |--3--|
| S S S S S S S S S S S S S S S S S
 
 |----------------------------------------------------|
 |----------------12-15-13-------12-------------------|
 |-14-12-11-12-14----------14-12----14-12-11-12h14p12-|
 |----------------------------------------------------|
 |----------------------------------------------------|
 |----------------------------------------------------|

|
| Gtr III
| |--3--|
| S S S S S S S S S S S S S S S S S
 
 |----------------------------------------------------|
 |----------------------------------------------------|
 |----------------12-16-14-------12-------------------|
 |-16-14-12-14-16----------16-14----16-14-12-14h16p14-|
 |----------------------------------------------------|
 |----------------------------------------------------|

[E5] [G5] [A5] [Bb5] [A5] [G5]  
 
 |--------3---------| |-------3-------|

Q Q Q Q Q Q
 
 |------------------------------------------------|
 |------------------------------------------------|
 |------------------------------------------------|
 |------------------------------------------------|
 |--2-------5----------7--------8-------7-------5-|
 |--0-------3----------5--------6-------5-------3-|

|
| ~~
| S S S S S S S S S S S S Q
 
 |------------------------------------------------|
 |------------12-15-13---12----13-12--------------|
 |-11-12-14-----------------14-------14---12-11---|
 |------------------------------------------------|
 |------------------------------------------------|
 |------------------------------------------------|

|
| ~~
| S S S S S S S S S S S S Q
 
 |------------------------------------------------|
 |------------------------------------------------|
 |------------12-16-14---12----14-12--------------|
 |-12-14-16-----------------16-------16---14-12---|
 |------------------------------------------------|
 |------------------------------------------------|

[E5] [G5A5BbA5G5] [E5] [Bb5A5] [G5] [A5] [G5]  
 
 PM---------------------------------|
 |-3--| |-3-| |--3--| |--3--|

E S E S E E S E S E Q Q Q Q Q Q Q Q Q Q Q Q
 
 |---------------------------------------|----------------|-------------------||
 |---------------------------------------|----------------|-------------------||
 |---------------------------------------|----------------|-------------------||
 |---------------------------------------|----------------|-------------------||
 |---------------------------------------|-2--5-7-8-7-5---|--2--8--7--5--7--5-||
 |--0-----0--0----0-0--0-----0--0----0-0-|-0--3-5-6-5-3---|--0--6--5--3--5--3-||

|
| \4
| ~~ ~~
 
 | |--3--| |--3--|

| S S S S Q S S S S Q W Q Q Q Q Q Q
 
 |----------19-17-----15p12--------------|----------------|-------------------||
 |-------17-----------------15p12--------|----------------|-15s12-------------||
 |-16-19--------------------------11-----|----------------|-------15s14S12----||
 |---------------------------------------|----------------|----------------14-||
 |---------------------------------------|----------------|-------------------||
 |---------------------------------------|-0--------------|-------------------||

Guitar Solo - Michael
[(B)]  
 
 PM-------| PM--------| PM--------

S S S S E S S S S E S S S S
 
 |------------------------------------------|
 |------------------------------------------|
 |-------------4---------------4------------|
 |------------------------------------------|
 |--2----2-2-2---2-2--2----2-------2-2--2-2-|
 |------------------------------------------|

|
| Gtr III
| H E +E E E
 
 |-24b26-------------24b26r==(24)------22---|
 |--------------------------------24--------|
 |------------------------------------------|
 |------------------------------------------|
 |------------------------------------------|
 |------------------------------------------|

|
| Gtr IV
| ~~~~~
| W
 
 |------------------------------------------|
 |------------------------------------------|
 |-14b16------------------------------------|
 |------------------------------------------|
 |------------------------------------------|
 |------------------------------------------|

[(A)]  
 
 ----------| PM--------| PM----|

S S S S E S S S S E S S S S
 
 |---------------------------------------|
 |---------------------------------------|
 |-------------4--------------4----------|
 |---------------------------------------|
 |--0--0--0-0-----0-0--0----0---0-0-0-0--|
 |---------------------------------------|

|
| ~~~~~
| S S E E E H
 
 |---------------------------------------|
 |-22h24p22---24-22---22b24--------------|
 |---------------------------------------|
 |---------------------------------------|
 |---------------------------------------|
 |---------------------------------------|

|
| W
 
 |---------------------------------------|
 |---------------------------------------|
 |---------------------------------------|
 |---------------------------------------|
 |---------------------------------------|
 |---------------------------------------|

[(G)]  
 
 PM-------| PM--------| PM--------

S S S S E S S S S E S S S S
 
 |------------------------------------------|
 |------------------------------------------|
 |------------------------------------------|
 |-------------5---------------5------------|
 |------------------------------------------|
 |--3----3-3-3---3-3--3----3-------3-3--3-3-|

|
| H E +E E E
 
 |------------------------------------------|
 |-17b19-------------17b19r==(17)-----------|
 |--------------------------------16---14---|
 |------------------------------------------|
 |------------------------------------------|
 |------------------------------------------|

[(E)] [(F#)]  
 
 --------------| PM------| PM----|

S S S S E S S S S E S S S S
 
 |--------------------------------------------|
 |--------------------------------------------|
 |--------------------------------------------|
 |-----------------2---------------4----------|
 |--------------------------------------------|
 |--0-0----0----0--------0--0--2-2---2-2-2-2--|

|
| ~~
 
 | |----3----|

| E E E S S S S H
 
 |--------------------------------------------|
 |--------------------------------------------|
 |-16---14------------------------------------|
 |-----------16---14h16-14--------------------|
 |-------------------------17-14--------------|
 |--------------------------------------------|

[(B)] [(A)]  
 
 PM----| PM------| PM-----------------| PM--------| PM----|

S S S S E S S S S E S S S S S S S S E S S S S E S S S S
 
 |------------------------------------|----------------------------------------|
 |------------------------------------|----------------------------------------|
 |---------4-----------4--------------|------------4----------------4----------|
 |------------------------------------|----------------------------------------|
 |-2-2-2-2---2-2--2--2-------2-2--2-2-|--0-0--0-0-------0----0--0-0---0-0-0-0--|
 |------------------------------------|----------------------------------------|

|
 
 | |---3---|

| E E E E E. E. E E E E E E H
 
 |------------------------------------|----------------------------------------|
 |------------------------------------|-17s==15---12-14---15---12--------------|
 |-4s==6---6s7---11------12------14---|----------------------------------------|
 |------------------------------------|-14s==12----9-11---12----9--------------|
 |-2s==4---4s5----9------10------12---|----------------------------------------|
 |------------------------------------|----------------------------------------|

[(G)]  
 
 PM-------| PM------| PM--------

S S S S E S S S S E S S S S
 
 |----------------------------------------|
 |----------------------------------------|
 |----------------------------------------|
 |-------------5-----------5--------------|
 |----------------------------------------|
 |--3----3-3-3---3-3--3--3-------3-3--3-3-|

|
| ~~~~~
| H E. E. E
 
 |----------------------------------------|
 |-17b19-------------17------15------14---|
 |----------------------------------------|
 |----------------------------------------|
 |----------------------------------------|
 |----------------------------------------|

[(E)] [(F#)]  
 
 ---------| PM---------| PM----|

S S S S E S S S S E S S S S
 
 |---------------------------------------|
 |---------------------------------------|
 |---------------------------------------|
 |-------------2---------------4---------|
 |---------------------------------------|
 |--0--0-0--0-----0-0--2-----2---2-2-2-2-|

|
| E. E. E H
 
 |---------------------------------------|
 |-15------14---------14tr15-------------|
 |---------------16----------------------|
 |---------------------------------------|
 |---------------------------------------|
 |---------------------------------------|

Interlude
N.C.
Gtr I
T T T T T
S S S S S S S S S S S S S S S S
 
 |-14p10p=7-14p10p=7-14p10p=7-14p10p=7-14p10p=7h10-|
 |-------------------------------------------------|
 |-------------------------------------------------|
 |-------------------------------------------------|
 |-------------------------------------------------|
 |-------------------------------------------------|

|
| Gtr II
| T T T T T
| S S S S S S S S S S S S S S S S
 
 |-19p14p10-19p14p10-19p14p10-19p14p10-19p14p10h14-|
 |-------------------------------------------------|
 |-------------------------------------------------|
 |-------------------------------------------------|
 |-------------------------------------------------|
 |-------------------------------------------------|

|
| Gtr III
| ~~~~~~~~~~~~~~~~~~~~~~~~~~~~~~~~~~~~~~~~~~~~~~~~
| H. Q
 
 |-------------------------------------------------|
 |-------------------------------------14----------|
 |-16----------------------------------------------|
 |-------------------------------------------------|
 |-------------------------------------------------|
 |-------------------------------------------------|

T T T T T
S S S S S S S S S S S S S S S S
 
 |-17p12p=9-17p12p=9-17p12p=9-17p12p=9-17p12p=9h12-|
 |-------------------------------------------------|
 |-------------------------------------------------|
 |-------------------------------------------------|
 |-------------------------------------------------|
 |-------------------------------------------------|

|
| T T T T T
| S S S S S S S S S S S S S S S S
 
 |-22p17p12-22p17p12-22p17p12-22p17p12-22p17p12h17-|
 |-------------------------------------------------|
 |-------------------------------------------------|
 |-------------------------------------------------|
 |-------------------------------------------------|
 |-------------------------------------------------|

|
|~~~~~~~~~~~~~~~~~~~~~~~~~~~~~~~~~~~~~~~~~
| H. Q
 
 |-------------------------------------14----------|
 |-15----------------------------------------------|
 |-------------------------------------------------|
 |-------------------------------------------------|
 |-------------------------------------------------|
 |-------------------------------------------------|

T T T T T
S S S S S S S S S S S S S S S S
 
 |-15p12p=8-15p12p=8-15p12p=8-15p12p=8-15p12p=8h12-|
 |-------------------------------------------------|
 |-------------------------------------------------|
 |-------------------------------------------------|
 |-------------------------------------------------|
 |-------------------------------------------------|

|
| T T T T T
| S S S S S S S S S S S S S S S S
 
 |-20p15p12-20p15p12-20p15p12-20p15p12-20p15p12h15-|
 |-------------------------------------------------|
 |-------------------------------------------------|
 |-------------------------------------------------|
 |-------------------------------------------------|
 |-------------------------------------------------|

|
| ~~~~~~~~~~~~~~~~~~~~~~~~~~~~~~~~~~~~~~~~~~~~~~~~
| W
 
 |-------------------------------------------------|
 |-17----------------------------------------------|
 |-------------------------------------------------|
 |-------------------------------------------------|
 |-------------------------------------------------|
 |-------------------------------------------------|

T T T T T
S S S S S S S S S S S S S S S S
 
 |-14p10p=7-14p10p=7-14p10p=7-14p10p=7-14p10p=7h10-|
 |-------------------------------------------------|
 |-------------------------------------------------|
 |-------------------------------------------------|
 |-------------------------------------------------|
 |-------------------------------------------------|

|
| T T T T T
| S S S S S S S S S S S S S S S S
 
 |-19p14p10-19p14p10-19p14p10-19p14p10-19p14p10h14-|
 |-------------------------------------------------|
 |-------------------------------------------------|
 |-------------------------------------------------|
 |-------------------------------------------------|
 |-------------------------------------------------|

|
|~~~~~
| W
 
 |-------------------------------------------------|
 |-15----------------------------------------------|
 |-------------------------------------------------|
 |-------------------------------------------------|
 |-------------------------------------------------|
 |-------------------------------------------------|

T T T T T
S S S S S S S S S S S S S S S S
 
 |-14p10p=7-14p10p=7-14p10p=7-14p10p=7-14p10p=7h10-|
 |-------------------------------------------------|
 |-------------------------------------------------|
 |-------------------------------------------------|
 |-------------------------------------------------|
 |-------------------------------------------------|

|
| T T T T T
| S S S S S S S S S S S S S S S S
 
 |-19p14p10-19p14p10-19p14p10-19p14p10-19p14p10h14-|
 |-------------------------------------------------|
 |-------------------------------------------------|
 |-------------------------------------------------|
 |-------------------------------------------------|
 |-------------------------------------------------|

|
| ~~~~~~~~~~~~~~~~~~~~~~~~~~~~~~~~~~~~~~~~~~~~~~~~
| W
 
 |-------------------------------------------------|
 |-------------------------------------------------|
 |-16----------------------------------------------|
 |-------------------------------------------------|
 |-------------------------------------------------|
 |-------------------------------------------------|

T T T T T
S S S S S S S S S S S S S S S S
 
 |-17p12p=9-17p12p=9-17p12p=9-17p12p=9-17p12p=9h12-|
 |-------------------------------------------------|
 |-------------------------------------------------|
 |-------------------------------------------------|
 |-------------------------------------------------|
 |-------------------------------------------------|

|
| T T T T T
| S S S S S S S S S S S S S S S S
 
 |-22p17p12-22p17p12-22p17p12-22p17p12-22p17p12h17-|
 |-------------------------------------------------|
 |-------------------------------------------------|
 |-------------------------------------------------|
 |-------------------------------------------------|
 |-------------------------------------------------|

|
|~~~~~~~~~~~~~~~~~~~~~~~~~~~~
| H H
 
 |-------------------------14----------------------|
 |-15----------------------------------------------|
 |-------------------------------------------------|
 |-------------------------------------------------|
 |-------------------------------------------------|
 |-------------------------------------------------|

T T T T T
S S S S S S S S S S S S S S S S
 
 |-15p12p=8-15p12p=8-15p12p=8-15p12p=8-15p12p=8h12-|
 |-------------------------------------------------|
 |-------------------------------------------------|
 |-------------------------------------------------|
 |-------------------------------------------------|
 |-------------------------------------------------|

|
| T T T T T
| S S S S S S S S S S S S S S S S
 
 |-20p15p12-20p15p12-20p15p12-20p15p12-20p15p12h15-|
 |-------------------------------------------------|
 |-------------------------------------------------|
 |-------------------------------------------------|
 |-------------------------------------------------|
 |-------------------------------------------------|

|
| ~~~~~~~~~~~~~~~~~~~~~~~~~~~~~~~~~~~~~~~~~~~~~~~~
| W
 
 |-------------------------------------------------|
 |-17----------------------------------------------|
 |-------------------------------------------------|
 |-------------------------------------------------|
 |-------------------------------------------------|
 |-------------------------------------------------|

~~
 
 |--3--| |--3--| |--3--|

E E E E E E E E E Q
 
 |-17-15-14-----------------------||
 |----------17-15-14-17-15-14-----||
 |----------------------------16--||
 |--------------------------------||
 |--------------------------------||
 |--------------------------------||

|
| ~~
 
 | |--3--| |--3--| |--3--|

| E E E E E E E E E Q
 
 |-20-19-17-----------------------||
 |----------20-19-17-20-19-17-----||
 |----------------------------19--||
 |--------------------------------||
 |--------------------------------||
 |--------------------------------||

|
|~~~~
| W
 
 |--------------------------------||
 |-15-----------------------------||
 |--------------------------------||
 |--------------------------------||
 |--------------------------------||
 |--------------------------------||

Bridge
[A5]H. E [G5]E +H. E [F5]E +H. E [D5] E +Q E [E5]E +H
 
 |-------------|--------------|----------------|---------------------|
 |-------------|--------------|----------------|---------------------|
 |-------------|--------------|----------------|---------------------|
 |-------------|--------------|--------------7-|-(7)----9--(9)-------|
 |-7---------5-|-(5)--------3-|-(3)----------5-|-(5)----7--(7)-------|
 |-5---------3-|-(3)--------1-|-(1)------------|---------------------|

|
| W W H Q E E +Q. Q. E E
 
 |-------------|--------------|----------------|---------------------|
 |-------------|--------------|----------------|---------------------|
 |-------------|--------------|----------------|------------------9--|
 |-------------|--------------|-------------/3-|-(3)----5------------|
 |-------------|--------------|----------------|---------------------|
 |-------------|--------------|----------------|---------------------|

[A5]H. E [G5]E +H. E [F5]E +H. E [D5]E +Q E [E5]E +H
 
 |-----------------|------------------|------------------|---------------------|
 |-----------------|------------------|------------------|---------------------|
 |-----------------|------------------|------------------|---------------------|
 |-----------------|------------------|----------------7-|-(7)-----9-(9)-------|
 |-7-------------5-|-(5)------------3-|-(3)------------5-|-(5)-----7-(7)-------|
 |-5-------------3-|-(3)------------1-|-(1)--------------|---------------------|

|
| Q E Q E E E Q E Q E E E Q E Q E E E Q E Q E E E
 
 |-----------------|------------------|------------------|---------------------|
 |-----------------|------------------|------------------|---------------------|
 |-7------7--9---9-|--7------7--9---9-|--7------7--9---9-|--7------7-----9---9-|
 |-----10----------|------10----------|------10----------|------10-------------|
 |-----------------|------------------|------------------|---------------------|
 |-----------------|------------------|------------------|---------------------|

|
| Gtr III
| W W W H. E E
 
 |-----------------|------------------|------------------|---------------------|
 |-----------------|------------------|------------------|---------------------|
 |-----------------|------------------|------------------|-------------------5-|
 |-----------------|------------------|------------------|---------------------|
 |-----------------|------------------|------------------|---------------------|
 |-----------------|------------------|------------------|---------------------|

[A5]H. E [G5]E +H. E [F5]E +H. E [D5]E +Q E [E5]E +H
 
 |-----------------|------------------|------------------|----------------------|
 |-----------------|------------------|------------------|----------------------|
 |-----------------|------------------|------------------|----------------------|
 |-----------------|------------------|----------------7-|-(7)-----9-(9)--------|
 |-7-------------5-|-(5)------------3-|-(3)------------5-|-(5)-----7-(7)--------|
 |-5-------------3-|-(3)------------1-|-(1)--------------|----------------------|

|
| Q E Q E E E Q E Q E E E Q E Q E E E Q E Q E E E
 
 |-----------------|------------------|------------------|----------------------|
 |-----------------|------------------|------------------|-------------------10-|
 |-7------7--9---9-|--7------7--9---9-|--7------7--9---9-|--7------7-----9----9-|
 |-----10----------|------10----------|------10----------|------10--------------|
 |-----------------|------------------|------------------|----------------------|
 |-----------------|------------------|------------------|----------------------|

|
| Q

Important: The song above is NOT stored on the Chordie server. The original song is hosted at www.guitaretab.com. Chordie works as a search engine and provides on-the-fly formatting. Chordie does not index songs against artists'/composers' will. To remove this song please click here.

Text color:
Chord color:
Chord grids: 
Font size:    
Page size: 

A A5 B5 Bb5 D#5 D/F# D5 E5 F#5 F5 G5
Rate #1 of 2 versions

Login - add to songbook

SHARE PAGE  




You need to log in to post comments