Guitar Tabs, Chords and Lyrics
Server problems seems to be fixed. Chordie has been experiencing problems with songs disappearing. These issues now seems to be fixed, but still verifying the fix. If you find anything strange, please email admin@chordie.com.


Dark of the Sun   Arch Enemy

 
 |--------------------------------------|
 |--------------------------------------|
 |:------------------------------------:|Gtr
 |:------------------------------------:| I
 |--13--12\----------10--9-9------------|
 |--11--10\--000000---8--7-7-0-000-000--|

 


 | sl ...... . ... ...


 |


 

 
 |--------------------------------------|
 |--------------------------------------|
 |:------------------------------------:|Gtr
 |:-11--10-----------------------------:| II
 |---9---8-----------13-12-12-----------|
 |-----------000000--11-10-10-0-000-000-|

 


 ...... . ... ...


 


 Riff B


 

 
 |------------------------------------------------------------------|
 |------------------------------------------------------------------|
 |:----------------------------------------------------------------:|
 |:----------------------------------------------------------------:|
 |--------------------------------3--------------------4-----3---2--|
 |--000-000-000-000-000-000-000-0-1--000-000-000---4-5---3_4---1-0--|

 


 ... ... ... ... ... ... ... . ... ... ... h


 


 

 
 |------------------------------------------------------------------|
 |------------------------------------------------------------------|
 |:----------------------------------------------------------------:|
 |:----------------------------------------------------------------:|
 |--------------------------------8\--------------5-4----4-3-----2--|
 |--000-000-000-000-000-000-000-0-6\-000-000-000------5------4-1-0--|

 


 ... ... ... ... .. ... ... . sl ... ... ... .


 


 

 
 |------------------------------------------------------------------|
 |------------------------------------------------------------------|
 |:----------------------------------------------------------------:|
 |:----------------------------------------------------------------:|
 |--------------------------------3--------------------4-----3---2--|
 |--000-000-000-000-000-000-000-0-1--000-000-000---4-5---3_4---1-0--|

 


 ... ... ... ... ... ... ... . ... ... ... h


 


 

 
 |------------------------------------------------------------------|
 |------------------------------------------------------------------|
 |:----------------------------------------------------------------:|
 |:----------------------------------------------------------------:|
 |--------------------------------8\--------------5-4----4-3--------|
 |--000-000-000-000-000-000-000-0-6\-000-000-000------5------4-1----|

 


 ... ... ... ... ... ... ... . sl ... ... ...


 


 Riff C


 

 
 |---------------------------------------------------------------------------|
 |---------------------------------------------------------------------------|
 |:-------------------------------------------------------------------------:|Gtr
 |:------------------------/10-9-------------------------------/10-9--------:| I
 |--------/9--10--9~-------sl----12-10--------/9--10--9~-------sl----12-10---|
 |--0-000-sl---------8-888--------------0-000-sl---------8-888---------------|

 


 | . ... . ... . ... . ...


 

 
 |-------------------------/8--7-------------------------------/8--7---------|
 |--------/7--8--7~--------sl----10-8---------/7--8--7~--------sl-----10-8---|
 |:-------sl----------------------------------sl----------------------------:|Gtr
 |:-------------------------------------------------------------------------:| II
 |---------------------------------------------------------------------------|
 |--0-000------------8-888--------------0-000------------8-888---------------|

 


 . ... . ... . ... . ...


 


 

 
 |---------------------------------------------------------------------------|
 |---------------------------------------------------------------------------|
 |:-------------------------------------------------------------------------:|Gtr
 |:------------------------/10-9---------------------------1~---------------:| I
 |--------/9--10--9~-------sl-----12-10---5--3--3_2--4-2-4-------------------|
 |--0-000-sl---------8-888----------------3------p---------------------------|

 


 | . ... . ...


 

 
 |-------------------------/8--7---------------------------------------------|
 |--------/7--8--7~--------sl----10-8----------------------------------------|Gtr
 |:-------sl----------------------------------------------------------------:| II
 |:-------------------------------------------------------------------------:|
 |----------------------------------------5-----7-----9----------------------|
 |--0-000------------8-888----------------3-----5-----7----------------------|

 


 . ... . ...


 


 Play Riff C 1 Time W/Fill 1


 


 Fill 1


 

 
 |--14-141414-12-121212-12-12--15-151515-14-141414-14-14---------------------|
 |--12-121212-12-121212-12-12--12-121212-12-121212-12-12---------------------|
 |:-------------------------------------------------------------------------:|Gtr
 |:-------------------------------------------------------------------------:|III
 |---------------------------------------------------------------------------|
 |---------------------------------------------------------------------------|

 


 


 Play Riff B 1 Time


 Play Riff C 1 Time


 Play Riff C 1 Time W/Fill 1


 


 Riff D


 

 
 |-------------------------------------------------------------------|
 |-------------------------------------------------------------------|
 |:-9-----------------------10-----------------------9---10--9--7---:|
 |:-----7-7---7--9--10--7--------7-7---7--9--10--7------------------:|
 |--7------------------------8-----------------------7----8--7--5----|
 |------5-5---5--7---8--5--------5-5---5--7---8--5-------------------|
 |-------------------------------------------------------------------|
 |-------------------------------------------------------------------|
 |:--------7---9--7-----------------7-------------------------------:|
 |:-9--10-----------10---7--9--10------10--9--6---------------------:|
 |---------5---7--5-----------------5------------7-------------------|
 |--7---8------------8---5--7---8-------8--7--4--5-5555555555555555--|

 


 ................


 


 

 
 |-------------------------------------------------------------------|
 |-------------------------------------------------------------------|
 |:-9-----------------------10-----------------------9---10--9--7---:|
 |:-----7-7---7--9--10--7--------7-7---7--9--10--7------------------:|
 |--7------------------------8-----------------------7----8--7--5----|
 |------5-5---5--7---8--5--------5-5---5--7---8--5-------------------|
 |-------------------------------------------------------------------|
 |-------------------------------------------------------------------|
 |:--------7---9--7-----------------7-------------------------------:|
 |:-9--10-----------10---7--9--10------10--9--6---------------------:|
 |---------5---7--5-----------------5------------7-------------------|
 |--7---8------------8---5--7---8-------8--7--4--5-------------------|

 


 


 Play Riff A 4 Times


 Play Riff B 1 Time


 Play Riff C 1 Time


 Play Riff C 1 Time W/Fill 1


 Play Riff D 1 Time


 Solo


 


 Riff E [Play 2 Times]


 

 
 |--------------------------------------------------------------|
 |--------------------------------------------------------------|
 |:------------------------------------------------------------:|Gtr
 |:-------------------/10-9-7~~----------------------/10-9-7~~-:| I
 |-----/9_10-9~~------sl-------------/9_10-9~~-------sl---------|
 |--0--slh---------8--------------0--slh---------8--------------|

 


 |


 

 
 |--------------------------------------------------------------|
 |--------------------------------------------------------------|
 |:-------------------/9-7---------------------------/9-7------:|Gtr
 |:----/7_9-7~~-------sl---10~~------/7_9-7~~--------sl---10~~-:| II
 |-----sl----------------------------slh------------------------|
 |--0--------------8--------------0--------------8--------------|
 |--------------------------------------------------------------|
 |----------------------------------------8--------------8~~----|
 |:-------------------------------------7---7--------6-9-------:|Gtr
 |:-------------------/10-9-7~~-------9------------7-----------:| I
 |-----/9_10-9~-------sl-----------10--------10-----------------|
 |--0--slh--------8---------------------------------------------|

 


 |


 

 
 |----------------------------------------7--------------7\-----|
 |--------------------------------------8---8----------8--sl----|
 |:-------------------/9-7------------7-------7----6-9---------:|Gtr
 |:----/7_9-7~~-------sl---10~~-----9--------------------------:| II
 |-----slh------------------------------------------------------|
 |--0-------------8---------------------------------------------|

 


 


 Riff F [Play 2 Times]


 

 
 |---------------------------------------------------------------|
 |---------------------------------------------------------------|
 |:-------------------------------------------------------------:|
 |:-------------------------------------------------------------:|
 |--7"---------------------2"----------7"--------------------5"--|
 |---------8"------3"------------------------8"------3"----------|

 


 . . . . . . . .


 


 Play Riff B 1 Time


 Play Riff C 1 Time


 Play Riff C 1 Time W/Fill 1


 


 Riff D.1


 

 
 |-------------------------------------------------------------------|
 |-------------------------------------------------------------------|
 |:-9-----------------------10-----------------------9---10--9--7---:|
 |:-----7-7---7--9--10--7--------7-7---7--9--10--7------------------:|
 |--7------------------------8-----------------------7----8--7--5----|
 |------5-5---5--7---8--5--------5-5---5--7---8--5-------------------|

 


 


 [Play 2 Times] 


 

 
 |-------------------------------------------------------------------|
 |-------------------------------------------------------------------|
 |:--------7---9--7-----------------7-------------------------------:|
 |:-9--10-----------10---7--9--10------10--9--6--7------------------:|
 |---------5---7--5-----------------5--------------------------------|
 |--7---8------------8---5--7---8-------8--7--4--5-5555555555555555--|

 


 ................


 


 Riff G


 

 
 |-------------------------------------------------------------|
 |-------------------------------------------------------------|
 |:-9----------------------------9--------10------------------:|Gtr
 |:-------------7--7-----10--12-----10-----------------7--7---:| I
 |--7----------------------------7---------8-------------------|
 |--------------5--5------8--10------8-----------------5--5----|

 


 |


 

 
 |-------------------------------------------------------------|
 |-------------------------------------------------------------|
 |:-----------------------------------------------------------:|Gtr
 |:-10/14-(14)\10-10~----10--12--14--10--10/17-(17)\10-10-10~-:| II
 |----sl------sl---------------------------sl------sl----------|
 |-------------------------------------------------------------|
 |-------------------------------------------------------------|
 |-------------------------------------------------------------|
 |:---------9---------9---10--9--7----------7---9--7----------:|Gtr
 |:-10--12-----10--------------------9--10------------10------:| I
 |----------7---------7----8--7--5----------5---7--5-----------|
 |---8--10------8--------------------7---8-------------8-------|

 


 |


 

 
 |-------------------------------------------------------------|
 |-------------------------------------------------------------|
 |:------7--9---------9----10--9--7---------7---9--7----------:|Gtr
 |:-10---------10--------------------9--10------------10------:| II
 |-------------------------------------------------------------|
 |-------------------------------------------------------------|
 |-------------------------------------------------------------|
 |-------------------------------------------------------------|
 |:-5--7--9-----------7--9--10-----------------10--9----------:|Gtr
 |:-----------7--7---------------5--5---7--6------------------:| I
 |--3--5--7-----------5--7---8------------------8--7----7-(7)\-|
 |------------5--5---------------3--3---5--4------------5-(5)\-|

 


 | sl


 

 
 |-------------------------------------------------------------|
 |-----------------------------------------------------10------|
 |:-5--7--9-----------7--9--10------------------10--9---------:|Gtr
 |:-----------7--7---------------9--9----7--6-----------------:| II
 |-------------------------------------------------------------|
 |-------------------------------------------------------------|


Important: The song above is NOT stored on the Chordie server. The original song is hosted at www.guitaretab.com. Chordie works as a search engine and provides on-the-fly formatting. Chordie does not index songs against artists'/composers' will. To remove this song please click here.

This song is displayed as text-only. Transposing and tuning is only available for chordpro-songs.
Rate #1 of 2 versions

Login - add to songbook

SHARE PAGE  



You need to log in to post comments