Guitar Tabs, Chords and Lyrics
Major upgrade!! After one year development the new version of Chordie is now online! Please give feedback.


Demonic Science  Arch Enemy

As recorded by Arch Enemy
(From the 1999 Album BURNING BRIDGES)
Transcribed by SoggieMufin
Words by Michael Amott Music by Michael Amott/Christopher Amott
Gtr I (B E A D F# B) - 'Untitled'
Gtr II (B E A D F# B) - 'Untitled'
Gtr III (B E A D F# B) - 'Untitled'
Gtr IV (B E A D F# B) - 'Untitled'
Gtr V (B E A D F# B) - 'Clean'
Gtr VI (B E A D F# B) - 'Noise'
Intro
Q=158
N.C.
[4/4] Gtrs I, II
 
 PM| PM| PM----| PM----------------|

S S E +E S S Q S S S S E S S E E S S E S S E
 
 ||---------------------------|------------------------||
 ||o--------------------------|-----------------------o||
 ||---------------------------|------------------------||
 ||---------------------------|------------------------||
 ||o-----8-(8)-----8----------|-7---------------------o||
 ||--0-0-------0-0----0-0-0-0-|---0-0-0-0-0-0-0-0-0-0--||

Gtr I
 
 PM| PM| PM----| PM----------------|

S S E +E S S Q S S S S E S S E E S S E S S E
 
 |-----------------------------|------------------------|
 |-----------------------------|------------------------|
 |-----------------------------|------------------------|
 |-----------------------------|------------------------|
 |-----12-(12)-----12----------|-11---------------------|
 |-0-0---------0-0-----0-0-0-0-|----0-0-0-0-0-0-0-0-0-0-|

|
| Gtr II
 
 | PM| PM| PM----| PM----------------|

| S S E +E S S Q S S S S E S S E E S S E S S E
 
 |-----------------------------|------------------------|
 |-----------------------------|------------------------|
 |-----------------------------|------------------------|
 |-----------------------------|------------------------|
 |------8--(8)------8----------|--7---------------------|
 |-0-0---------0-0-----0-0-0-0-|----0-0-0-0-0-0-0-0-0-0-|
 PM| PM| PM----| PM----------------|

S S E +E S S Q S S S S E S S E E S S E S S E
 
 |-----------------------------|------------------------|
 |-----------------------------|------------------------|
 |-----10-(10)-----10----------|--9---------------------|
 |-----------------------------|------------------------|
 |-----------------------------|------------------------|
 |-0-0---------0-0-----0-0-0-0-|----0-0-0-0-0-0-0-0-0-0-|

|
 
 | PM| PM| PM----| PM----------------|

| S S E +E S S Q S S S S E S S E E S S E S S E
 
 |-----------------------------|------------------------|
 |-----------------------------|------------------------|
 |-----------------------------|------------------------|
 |-----------------------------|------------------------|
 |-----12-(12)-----12----------|-11---------------------|
 |-0-0---------0-0-----0-0-0-0-|----0-0-0-0-0-0-0-0-0-0-|

N.C.
Gtrs I, II
 
 PM------------------------------------------|

E S S E E S S E S S E E S S E E S S E S S E
 
 ||------------------------|-----------------------|
 ||o-----------------------|-----------------------|
 ||------------------------|-----------------------|
 ||------------------------|-----------------------|
 ||o---5-6-7---5-6-7-5-6-7-|---5-6-7---5-6-7-5-6-7-|
 ||--0-------0-------------|-0-------0-------------|
 PM------------------|

E S S E E S S E S S E S S S S S S S S S S S S S S S S
 
 |-----------------------|-----------------------------------||
 |-----------------------|----------------------------------o||
 |-----------------------|-----------------------------------||
 |-----------------------|-----------------------------------||
 |---5-6-7---5-6-7-5-6-7-|-------------------3-3-3-5-5-7-7--o||
 |-0-------0-------------|-3-3-3-5-5-5-7-7-7-----------------||

Verse
N.C.
 
 PM------------------------------------------|

E S S E E S S E S S E E S S E E S S E S S E
 
 ||------------------------|-----------------------|
 ||o-----------------------|-----------------------|
 ||------------------------|-----------------------|
 ||------------------------|-----------------------|
 ||o---5-6-7---5-6-7-5-6-7-|---5-6-7---5-6-7-5-6-7-|
 ||--0-------0-------------|-0-------0-------------|

Gtr I
 
 PM------------------|

E S S E E S S E S S E S S S S S S S S S S S S S S S S
 
 |-----------------------|-----------------------------------||
 |-----------------------|----------------------------------o||
 |-----------------------|-----------------------------------||
 |-----------------------|-------------------2-2-2-4-4-5-5---||
 |---5-6-7---5-6-7-5-6-7-|-2-2-2-3-3-3-5-5-5----------------o||
 |-0-------0-------------|-----------------------------------||

|
| Gtr II
 
 | PM------------------|

| E S S E E S S E S S E S S S S S S S S S S S S S S S S
 
 |-----------------------|-----------------------------------||
 |-----------------------|----------------------------------o||
 |-----------------------|-----------------------------------||
 |-----------------------|-----------------------------------||
 |---5-6-7---5-6-7-5-6-7-|-------------------3-3-3-5-5-7-7--o||
 |-0-------0-------------|-3-3-3-5-5-5-7-7-7-----------------||

Chorus
To Coda
E5 N.C. F5 E5 N.C. F5 E5 N.C. F5
PM PM PM PM PM PM
Q E E Q E E Q E E Q E E Q E E Q. E E E E E E E E E
 
 ||----------------|---------------|---------------|-------------------||
 ||o---------------|---------------|---------------|------------------o||
 ||-------7s6------|------9s8------|------7s6------|-------------------||
 ||----------------|---------------|---------------|-------------------||
 ||o-2----5s4----3-|-2----7s6----3-|-2----5s4------|-3-3---3---3---3--o||
 ||--0--0------0-1-|-0--0------0-1-|-0--0--------0-|-1-1---1---1---1---||

|
| PM PM PM PM PM PM
| Q E E Q E E Q E E Q E E Q E E Q. E E E E E E E E E
 
 ||----------------|---------------|---------------|-------------------||
 ||o---------------|---------------|---------------|------------------o||
 ||-------4s3------|------6s5------|------4s3------|-------------------||
 ||----------------|---------------|---------------|-------------------||
 ||o-2----2s1----3-|-2----4s3----3-|-2----2s1------|-3-3---3---3---3--o||
 ||--0--0------0-1-|-0--0------0-1-|-0--0--------0-|-1-1---1---1---1---||

Lead Noise - M. Amott
N.C.
Gtr VI
~~~~~ TP
W H H
 
 |---------------------------|------------------------|
 |-15b19---------------------|-x\---------------------|
 |---------------------------|-x\---------------------|
 |---------------------------|------------------------|
 |---------------------------|------------------------|
 |---------------------------|------------------------|

|
| Gtrs I, II
 
 | PM----------------------------------------------|

| E S S E E S S E S S E E S S E E S S E S S E
 
 |---------------------------|------------------------|
 |---------------------------|------------------------|
 |---------------------------|------------------------|
 |---------------------------|------------------------|
 |-------5-6-7---5-6-7-5-6-7-|----5-6-7---5-6-7-5-6-7-|
 |--0----------0-------------|-0--------0-------------|

Gtr III
TP TP
Q Q Q Q E E E E E E E E
 
 |--------------------------|-----/(21)-------/21-------/21-------/21----|
 |-/x---------/x\-----------|--------------------------------------------|
 |-/x---------/x\-----------|--------------------------------------------|
 |--------------------------|--------------------------------------------|
 |--------------------------|--------------------------------------------|
 |--------------------------|--------------------------------------------|

|
 
 | PM--------------------|

| E S S E E S S E S S E S S S S S S S S S S S S S S S S
 
 |--------------------------|--------------------------------------------|
 |--------------------------|--------------------------------------------|
 |--------------------------|--------------------------------------------|
 |--------------------------|--------------------------------------------|
 |----5-6-7----5--6-7-5-6-7-|-------------------------3---3-3-5-5---7-7--|
 |--0-------0---------------|-3-3----3--5-5-5---7-7-7--------------------|

Gtr VI
TP TP
H. Q +Q H.
 
 |-------------------------|---------------------------|
 |------------------/x-----|-(x)\----------------------|
 |------------------/x-----|-(x)\----------------------|
 |-------------------------|---------------------------|
 |-------------------------|---------------------------|
 |-------------------------|---------------------------|

|
 
 | PM------------------------------------------------|

| E S S E E S S E S S E E S S E E S S E S S E
 
 |-------------------------|---------------------------|
 |-------------------------|---------------------------|
 |-------------------------|---------------------------|
 |-------------------------|---------------------------|
 |----5-6-7---5-6-7--5-6-7-|------5-6-7----5-6-7-5-6-7-|
 |-0--------0--------------|--0----------0-------------|

Gtrs I, II
 
 PM--------------------------------------------|

E S S E E S S E S S E S S S S S S S S S S S S S S S S
 
 |-----------------------|----------------------------------|
 |-----------------------|----------------------------------|
 |-----------------------|----------------------------------|
 |-----------------------|----------------------------------|
 |---5-6-7---5-6-7-5-6-7-|-------------------3-3-3-5-5-7-7--|
 |-0-------0-------------|-3-3-3-5-5-5-7-7-7----------------|

Verse
N.C.
 
 PM------------------------------------------|

E S S E E S S E S S E E S S E E S S E S S E
 
 ||------------------------|-----------------------|
 ||o-----------------------|-----------------------|
 ||------------------------|-----------------------|
 ||------------------------|-----------------------|
 ||o---5-6-7---5-6-7-5-6-7-|---5-6-7---5-6-7-5-6-7-|
 ||--0-------0-------------|-0-------0-------------|

Gtr I
 
 PM------------------|

E S S E E S S E S S E S S S S S S S S S S S S S S S S
 
 |-----------------------|-----------------------------------||
 |-----------------------|----------------------------------o||
 |-----------------------|-----------------------------------||
 |-----------------------|-------------------2-2-2-4-4-5-5---||
 |---5-6-7---5-6-7-5-6-7-|-2-2-2-3-3-3-5-5-5----------------o||
 |-0-------0-------------|-----------------------------------||

|
| Gtr II
 
 | PM------------------|

| E S S E E S S E S S E S S S S S S S S S S S S S S S S
 
 |-----------------------|-----------------------------------||
 |-----------------------|----------------------------------o||
 |-----------------------|-----------------------------------||
 |-----------------------|-----------------------------------||
 |---5-6-7---5-6-7-5-6-7-|-------------------3-3-3-5-5-7-7--o||
 |-0-------0-------------|-3-3-3-5-5-5-7-7-7-----------------||

Chorus
E5 N.C. F5 E5 N.C. F5 E5 N.C. F5
PM PM PM PM PM PM
Q E E Q E E Q E E Q E E Q E E Q. E E E E E E E E E
 
 ||----------------|---------------|---------------|-------------------||
 ||o---------------|---------------|---------------|------------------o||
 ||-------7s6------|------9s8------|------7s6------|-------------------||
 ||----------------|---------------|---------------|-------------------||
 ||o-2----5s4----3-|-2----7s6----3-|-2----5s4------|-3-3---3---3---3--o||
 ||--0--0------0-1-|-0--0------0-1-|-0--0--------0-|-1-1---1---1---1---||

|
| PM PM PM PM PM PM
| Q E E Q E E Q E E Q E E Q E E Q. E E E E E E E E E
 
 ||----------------|---------------|---------------|-------------------||
 ||o---------------|---------------|---------------|------------------o||
 ||-------4s3------|------6s5------|------4s3------|-------------------||
 ||----------------|---------------|---------------|-------------------||
 ||o-2----2s1----3-|-2----4s3----3-|-2----2s1------|-3-3---3---3---3--o||
 ||--0--0------0-1-|-0--0------0-1-|-0--0--------0-|-1-1---1---1---1---||

Bridge I
N.C.
PM PM PM PM PM PM ~~~~~~
q Q. E E E q Q. E E E q Q. E E E q Q E E +Q
 
 ||----------------|---------------|---------------|------------------||
 ||o---------------|---------------|---------------|-----------------o||
 ||----------------|---------------|---------------|------------------||
 ||----------------|---------------|---------------|------------------||
 ||o-7---------7---|-9---------9---|-7---------7---|-7-----7-6-(6)---o||
 ||----------0---0-|---------0---0-|---------0---0-|------------------||

|
| PM PM PM PM PM PM ~~~~~~
| q Q. E E E q Q. E E E q Q. E E E q Q E E +Q
 
 ||----------------|---------------|---------------|------------------||
 ||o---------------|---------------|---------------|-----------------o||
 ||----------------|---------------|---------------|------------------||
 ||----------------|---------------|---------------|------------------||
 ||o-7---------7---|-5---------5---|-4---------4---|-3-----3-2-(2)---o||
 ||----------0---0-|---------0---0-|---------0---0-|------------------||

[(Esus2)]Gtr III[(Dsus2)]
Q. E +Q Q H +E E E E
 
 |-------------------------|------------------------|
 |-------------------------|------------------------|
 |----------13-(13)---14---|-16-------(16)----13-14-|
 |-/14---------------------|---------------14-------|
 |-------------------------|------------------------|
 |-------------------------|------------------------|

|
| Gtr V
| E E E E E E E E E E E E E E E E
 
 |-----------2-------------|--------0---------------|
 |--------5------5---------|------3-----3-----------|
 |------4-----------4----4-|----2-----------2-----2-|
 |---2-----------------2---|--0----------------0----|
 |-------------------------|------------------------|
 |-------------------------|------------------------|

a [(A/C#)] Q. E +Q Q [(C)] E +E +E E +H[(B)]
 
 |---------------------------|------------------------------------|
 |---------------------------|------------------------------------|
 |-14h16------14-(14)---13---|------------------------------------|
 |---------------------------|-16b17-(16)pb17r(16)-14-(14)--------|
 |---------------------------|------------------------------------|
 |---------------------------|------------------------------------|

|
| E E E E E E E E E E E E E E +Q
 
 |---------------------------|------------------------------------|
 |-------------2-------------|----------------------5-------------|
 |----------2------2---------|------------------5-----------------|
 |--------2-----------2----2-|---------5--------------------------|
 |-----4-----------------4---|--3-----------------------3--2-(2)--|
 |---------------------------|------------------------------------|

[(Esus2)] Q. E +Q Q [(Dsus2)] H +E E E E
 
 |-------------------------|------------------------|
 |-------------------------|------------------------|
 |----------13-(13)---14---|-16-------(16)----13-14-|
 |-/14---------------------|---------------14-------|
 |-------------------------|------------------------|
 |-------------------------|------------------------|

|
| E E E E E E E E E E E E E E E E
 
 |-----------2-------------|--------0---------------|
 |--------5------5---------|------3-----3-----------|
 |------4-----------4----4-|----2-----------2-----2-|
 |---2-----------------2---|--0----------------0----|
 |-------------------------|------------------------|
 |-------------------------|------------------------|

D.C. al Coda
[(A/C#)] a Q. E +Q Q [(C)] E +E +E E +H[(B)]
 
 |---------------------------|------------------------------------|
 |---------------------------|------------------------------------|
 |-14h16------14-(14)---13---|------------------------------------|
 |---------------------------|-16b17-(16)pb17r(16)-14-(14)--------|
 |---------------------------|------------------------------------|
 |---------------------------|------------------------------------|

|
| E E E E E E E E E E E E E E +Q
 
 |---------------------------|------------------------------------|
 |-------------2-------------|----------------------5-------------|
 |----------2------2---------|------------------5-----------------|
 |--------2-----------2----2-|---------5--------------------------|
 |-----4-----------------4---|--3-----------------------3--2-(2)--|
 |---------------------------|------------------------------------|

Bridge II
&
N.C.
Gtr I
PM PM PM PM PM PM ~~~~~~
q Q. E E E q Q. E E E q Q. E E E q Q E E +Q
 
 ||----------------|---------------|---------------|------------------||
 ||o---------------|---------------|---------------|-----------------o||
 ||----------------|---------------|---------------|------------------||
 ||----------------|---------------|---------------|------------------||
 ||o-7---------7---|-9---------9---|-7---------7---|-7-----7-6-(6)---o||
 ||----------0---0-|---------0---0-|---------0---0-|------------------||

|
| Gtr II
| PM PM PM PM PM PM ~~~~~~
| q Q. E E E q Q. E E E q Q. E E E q Q E E +Q
 
 ||----------------|---------------|---------------|------------------||
 ||o---------------|---------------|---------------|-----------------o||
 ||----------------|---------------|---------------|------------------||
 ||----------------|---------------|---------------|------------------||
 ||o-7---------7---|-5---------5---|-4---------4---|-3-----3-2-(2)---o||
 ||----------0---0-|---------0---0-|---------0---0-|------------------||

[(Esus2)]Gtr IV[(Dsus2)]
Q. E +Q Q H +E E E E
 
 |--------------------------|--------------------------|
 |--------------------------|--------------------------|
 |-----------13-(13)---14---|-/16--------(16)----13-14-|
 |-/14----------------------|-----------------14-------|
 |--------------------------|--------------------------|
 |--------------------------|--------------------------|

|
| Gtr V
| E E E E E E E E E E E E E E E E
 
 |------------2-------------|----------0---------------|
 |--------5-------5---------|-------3------3-----------|
 |------4------------4----4-|-----2------------2-----2-|
 |---2------------------2---|---0-----------------0----|
 |--------------------------|--------------------------|
 |--------------------------|--------------------------|

|
| Gtrs I, II
| PM PM PM PM
| q Q. E E E q Q. E E E
 
 |--------------------------|--------------------------|
 |--------------------------|--------------------------|
 |--------------------------|--------------------------|
 |--------------------------|---4-----------------4----|
 |---7------------------7---|---5-----------------5----|
 |-------------------0----0-|------------------0-----0-|

q H E E
[(A/C#)] Q. E +Q Q [(C)] E +E +E E +H[(B)]
 
 |--------------------------|------------------------------------|
 |--------------------------|------------------------------------|
 |-/16-------14-(14)---13---|------------------------------------|
 |--------------------------|-16b17-(16)pb17r(16)-14-(14)--------|
 |--------------------------|------------------------------------|
 |--------------------------|------------------------------------|

|
| E E E E E E E E E E E E E E +Q
 
 |--------------------------|------------------------------------|
 |------------2-------------|----------------------5-------------|
 |--------2-------2---------|------------------5-----------------|
 |------2------------2----2-|---------5--------------------------|
 |---4------------------4---|--3-----------------------3--2-(2)--|
 |--------------------------|------------------------------------|

|
| PM PM ~~~~~~
| q Q. E E E q Q E E +Q
 
 |--------------------------|------------------------------------|
 |--------------------------|------------------------------------|
 |--------------------------|------------------------------------|
 |---2------------------2---|--2-----------------------2--1-(1)--|
 |---4------------------4---|--3-----------------------3--2-(2)--|
 |-------------------0----0-|------------------------------------|

q H E E q Q E E +Q
[(Esus2)] Q. E +Q Q [(Dsus2)] H +E E E E
 
 |--------------------------|--------------------------|
 |--------------------------|-/17--------(17)----------|
 |-----------13-(13)---14---|--------------------13-14-|
 |-/14----------------------|-----------------14-------|
 |--------------------------|--------------------------|
 |--------------------------|--------------------------|

|
| E E E E E E E E E E E E E E E E
 
 |------------2-------------|----------0---------------|
 |--------5-------5---------|-------3------3-----------|
 |------4------------4----4-|-----2------------2-----2-|
 |---2------------------2---|---0-----------------0----|
 |--------------------------|--------------------------|
 |--------------------------|--------------------------|

|
| PM PM PM PM
| q Q. E E E q Q. E E E
 
 |--------------------------|--------------------------|
 |--------------------------|--------------------------|
 |--------------------------|--------------------------|
 |--------------------------|---4-----------------4----|
 |---7------------------7---|---5-----------------5----|
 |-------------------0----0-|------------------0-----0-|

[(A/C#)] Q. E +Q Q [(C)] E +E +E E +H[(B)]
 
 |--------------------------|------------------------------------|
 |--------------------------|------------------------------------|
 |-/16-------14-(14)---13---|------------------------------------|
 |--------------------------|-16b17-(16)pb17r(16)-14-(14)--------|
 |--------------------------|------------------------------------|
 |--------------------------|------------------------------------|

|
| E E E E E E E E E E E E E E +Q
 
 |--------------------------|------------------------------------|
 |------------2-------------|----------------------5-------------|
 |--------2-------2---------|------------------5-----------------|
 |------2------------2----2-|---------5--------------------------|
 |---4------------------4---|--3-----------------------3--2-(2)--|
 |--------------------------|------------------------------------|

|
| PM PM ~~~~~~
| q Q. E E E q Q E E +Q
 
 |--------------------------|------------------------------------|
 |--------------------------|------------------------------------|
 |--------------------------|------------------------------------|
 |---2------------------2---|--2-----------------------2--1-(1)--|
 |---4------------------4---|--3-----------------------3--2-(2)--|
 |-------------------0----0-|------------------------------------|

Q=150
[E5]Gtrs I, II
W +W +W +H.. E
 
 |----------|------------|------------|--------------|
 |----------|------------|------------|--------------|
 |----------|------------|------------|--------------|
 |----------|------------|------------|--------------|
 |-2--------|-(2)--------|-(2)--------|-(2)--------2-|
 |-0--------|-(0)--------|-(0)--------|-(0)--------0-|

[E5] [F#G5BbE5F#G5] [B5E5F#G5D5C#5E5] [F#G5BbE5F#G5] [B5E5F#G5D5C#5E5]  
 
 PM--| PM--| PM--| PM--| PM--| PM--|

+E E E E E E E E E E E E E Q E +E E E E E E E E E E E E E Q E
 
 |-------------------|----------------|-------------------|----------------|
 |-------------------|----------------|-------------------|----------------|
 |-------------------|----------------|-------------------|----------------|
 |-----------3-------|-4-------7-6----|-----------3-------|-4-------7-6--9-|
 |-(2)-2-4-5-1-2-4-5-|-2-2-4-5-5-4--2-|-(2)-2-4-5-1-2-4-5-|-2-2-4-5-5-4--7-|
 |-(0)-0-2-3---0-2-3-|---0-2-3------0-|-(0)-0-2-3---0-2-3-|---0-2-3--------|

[E5] [F#G5BbE5F#G5] [B5E5F#G5D5C#5E5] [F#G5BbE5F#G5]  
 
 PM--| PM--| PM--| PM--| PM--|

+E E E E E E E E E E E E E Q E +E E E E E E E E
 
 |-------------------|----------------|-------------------|
 |-------------------|----------------|-------------------|
 |-------------------|----------------|-------------------|
 |-(9)-------3-------|-4-------7-6----|-----------3-------|
 |-(7)-2-4-5-1-2-4-5-|-2-2-4-5-5-4--2-|-(2)-2-4-5-1-2-4-5-|
 |-----0-2-3---0-2-3-|---0-2-3------0-|-(0)-0-2-3---0-2-3-|

Lead - C. Amott
[B5]Gtr [E5F#G5D5C#5E5]III[F#5G5] [Bb5] [E5] [F#5G5] [B5] [E5] [F#5G5] [D5] [C#5E5]
H.. E +E E E E +E E E E +E E E E +H
 
 |----------------\19-||-(19)-------18-(18)-------17-|-(17)--------------------|
 |--------------------||------17------------17-------|------17-----------------|
 |--------------------||---------16------------16----|---------15-14-(14)------|
 |--------------------||-----------------------------|-------------------------|
 |--------------------||-----------------------------|-------------------------|
 |--------------------||-----------------------------|-------------------------|

|
| Gtrs I, II
 
 | PM--| PM---| PM---| PM---|

| E E E E E Q E +E E E E E E E E E E E E E Q E
 
 |--------------------||-----------------------------|-------------------------|
 |--------------------||-----------------------------|-------------------------|
 |--------------------||-----------------------------|-------------------------|
 |-4---------7-6----9-||--(9)------------3-----------|---4-------------7--6----|
 |-2---2-4-5-5-4----7-||--(7)--2--4--5---1---2--4--5-|---2---2--4--5---5--4--2-|
 |-----0-2-3----------||-------0--2--3-------0--2--3-|-------0--2--3---------0-|

[E5] S S S S [F#5] S S [G5] S S [Bb5] S S [E5] S S [F#5] S S [G5] S S
 
 |-17--12-------------------------------------------|
 |--------15-12-------15-12-------------------------|
 |--------------15-14-------15-14-12----15-14-12----|
 |-----------------------------------14----------14-|
 |--------------------------------------------------|
 |--------------------------------------------------|

|
 
 | PM---------| PM---------|

| +E E E E E E E E
 
 |--------------------------------------------------|
 |--------------------------------------------------|
 |--------------------------------------------------|
 |---------------------------3----------------------|
 |-(2)-----2-----4-----5-----1-----2-----4-----5----|
 |-(0)-----0-----2-----3-----------0-----2-----3----|

[B5] [E5] [F#5] [G5] [D5] ~~[C#5E5] [F#5] [G5] [Bb5] [E5F#G5]
S S S S S S S S H Q +E +E +H
 
 |---------------------------------|------------------------------------|
 |---------------------------------|-15b17---(15)b17==(15)-(15)r--------|
 |-12------------------------------|------------------------------------|
 |----14-12----14-12---------------|------------------------------------|
 |----------14-------14-12---------|------------------------------------|
 |-------------------------15------|------------------------------------|

|
 
 | PM---------| PM---------| PM--|

| E E E E E Q E +E E E E E E E E
 
 |---------------------------------|------------------------------------|
 |---------------------------------|------------------------------------|
 |---------------------------------|------------------------------------|
 |--4-----------------------7-6--9-|-(9)---------------------3----------|
 |--2-----2-----4-----5-----5-4--7-|-(7)---2---4--------5----1---2-4-5--|
 |--------0-----2-----3------------|-------0---2--------3--------0-2-3--|

[B5] [E5] [F#5] [G5] [D5] [C#5E5]  
[E] [+E] [E] [+E] [+B]  
 
 |------------------------------------|
 |-15pb17r(15)------------------------|
 |-------------14b16==(14)-(14)r------|
 |------------------------------------|
 |------------------------------------|
 |------------------------------------|

|
 
 | PM--------|

| E E E E E Q E
 
 |------------------------------------|
 |------------------------------------|
 |------------------------------------|
 |--4------------------------7---6----|
 |--2-------2---4-------5----5---4--2-|
 |----------0---2-------3-----------0-|

[F#5] [G5] [Bb5] [E5] [F#5] [G5]  
 
 |-----6------| |------6-------| |------6-------| |------6-------|

S S S S S S S S S S S S S S S S S S S S S S S S
 
 |-----------------------------------------------------------------------|
 |-----------------------------------------------------------------------|
 |--------------------------------------------12h14h16----------12h14h16-|
 |----------7h9h10----------10h12h14-12h14h16----------12h14h16----------|
 |--7h=9h10--------10h12h14----------------------------------------------|
 |-----------------------------------------------------------------------|

|
 
 | PM--------------| PM---------------|

| +E E E E E E E E
 
 |-----------------------------------------------------------------------|
 |-----------------------------------------------------------------------|
 |-----------------------------------------------------------------------|
 |------------------------------------3----------------------------------|
 |-(2)------2-------4--------5--------1--------2--------4--------5-------|
 |-(0)------0-------2--------3-----------------0--------2--------3-------|

[B5] [E5] [F#5] [G5] [D5] [C#5] [E5]  
 
 |-------6-------| |------6-------| |------6-------| |---------7----------|

S S S S S S S S S S S S S S S S S S S S S S S S S
 
 |--------------------------------------17-------17h19-------19h20-------19h20h22-||
 |-----------12h13h15----------17h19h20----19h20-------20h22-------22-15----------||
 |-12h=14h16----------14h15h17----------------------------------------------------||
 |--------------------------------------------------------------------------------||
 |--------------------------------------------------------------------------------||
 |--------------------------------------------------------------------------------||

| H.. E
 
 |---------------------------------1:1---------------------------------|

|
 
 | PM---------------|

| E E E E E Q E
 
 |--------------------------------------------------------------------------------||
 |--------------------------------------------------------------------------------||
 |--------------------------------------------------------------------------------||
 |--4------------------------------------7--------6--------------------9----------||
 |--2---------2--------4--------5--------5--------4--------------------7----------||
 |------------0--------2--------3-------------------------------------------------||

Lead - M. Amott
~~~~~~[F#5G5] [Bb5E5] [F#5G5]
H. Q
 
 |--22b24---------------------------|
 |-(15)---15-15-15-15-15-15-(15)b18-|
 |----------------------------------|
 |----------------------------------|
 |----------------------------------|
 |----------------------------------|

| +E E E E E E E +E
|
 
 | PM---| PM---|

| +E E E E E E E E
 
 |----------------------------------|
 |----------------------------------|
 |----------------------------------|
 |--(9)-------------3---------------|
 |--(7)----2--4--5--1--2--4---5-----|
 |---------0--2--3-----0--2---3-----|

[B5] ~~~[E5F#G5D5]~[C#5] [E5]
+H +E S S S S S S
 
 |-----------------------15-19-15----|
 |-(15)-------(15)-15-17----------17-|
 |-----------------------------------|
 |-----------------------------------|
 |-----------------------------------|
 |-----------------------------------|

|
| PM--|
| E E E E E Q E
 
 |-----------------------------------|
 |-----------------------------------|
 |-----------------------------------|
 |---4----------7---6----------------|
 |---2--2-4-5---5---4-----------2----|
 |------0-2-3-------------------0----|

[F#5] [G5] [Bb5] [E5] [F#5] [G5]  
 
 |------5-------| |------5------| |------5------| |------5------|

S S S S S S S S S S S S S S S S S S S S
 
 |-15--19-15------15-20-15------15-20-15----15---21-15----15-21---15----|
 |-------------17----------17------------17------------17------------17-|
 |----------------------------------------------------------------------|
 |----------------------------------------------------------------------|
 |----------------------------------------------------------------------|
 |----------------------------------------------------------------------|

|
 
 | PM---------------| PM---------------|

| +E E E E E E E E
 
 |----------------------------------------------------------------------|
 |----------------------------------------------------------------------|
 |----------------------------------------------------------------------|
 |-------------------------------------3--------------------------------|
 |-(2)-------2--------4-------5--------1-------2--------4-------5-------|
 |-(0)-------0--------2-------3----------------0--------2-------3-------|

[B5] [E5F#G5D5C#5E5] [F#G5Bb5E5F#G5] ~~ [B5] [E5] [F#G5D5] ~~[C#5E5]
H.. E +H H E +Q. H
 
 |-19--------------24b27-|-(24)pb27r===============|=22b26-(22)pb26r============|
 |-----------------------|----------------20-------|--------------------20------|
 |-----------------------|-------------------------|----------------------------|
 |-----------------------|-------------------------|----------------------------|
 |-----------------------|-------------------------|----------------------------|
 |-----------------------|-------------------------|----------------------------|

|
 
 | PM--| PM--| PM--| PM-------|

| E E E E E Q E +E E E E E E E E E E E E E Q E
 
 |-----------------------|-------------------------|----------------------------|
 |-----------------------|-------------------------|----------------------------|
 |-----------------------|-------------------------|----------------------------|
 |--4---------7-6---9----|--(9)------------3-------|--4------------------7-6----|
 |--2---2-4-5-5-4---7----|--(7)-----2-4-5--1-2-4-5-|--2------2------4-5--5-4--2-|
 |------0-2-3------------|----------0-2-3----0-2-3-|---------0------2-3-------0-|

[E5] [F#5G5] [Bb5E5] [F#5G5] ~~~~~~[B5]~~~~~~~~[E5]~~~~~[F#5]~~~~~[G5D5C#5]
E E E E E E Q +E +E +H +E E
 
 |---------22-19-------19---|-(19)b22r(19)-(19)-------(19)-------|
 |-/17--17-------20-19------|------------------------------15b17-|
 |--------------------------|------------------------------------|
 |--------------------------|------------------------------------|
 |--------------------------|------------------------------------|
 |--------------------------|------------------------------------|

|
 
 | PM---| PM---| PM------|

| +E E E E E E E E E E E E E Q E
 
 |--------------------------|------------------------------------|
 |--------------------------|------------------------------------|
 |--------------------------|------------------------------------|
 |----------------3---------|---4-----------------7-6------------|
 |--(2)--2--4--5--1--2--4-5-|---2-------2----4--5-5-4------------|
 |--(0)--0--2--3-----0--2-3-|-----------0----2--3-----------5----|

Outro (Melody - C. Amott)
Q=146
N.C.(Am) (D)
[+B] [+B] [B] [E] [E] [E] [E]  
 
 |-----------------------------|-------------------|
 |-(15)pb17-----(15)pb17r======|=15----12-13-15----|
 |-----------------------------|----------------12-|
 |-----------------------------|-------------------|
 |-----------------------------|-------------------|
 |-----------------------------|-------------------|

|
| PM
| +Q Q Q Q W
 
 |-----------------------------|-------------------|
 |-----------------------------|-------------------|
 |-----------------------------|-------------------|
 |----------------7-------/10--|-------------------|
 |-----------7-----------------|-------------------|
 |--(5)------------------------|-10----------------|

[(G)] H. E E [(C)] H.. E
 
 |--------------------|---------------|
 |--------------------|---------------|
 |-14b16--------------|------------11-|
 |--------------14p12-|-14------------|
 |--------------------|---------------|
 |--------------------|---------------|

|
| PM
| Q Q Q Q W
 
 |--------------------|---------------|
 |--------------------|---------------|
 |--------------------|---------------|
 |-----------5--/9----|---------------|
 |--------5-----------|---------------|
 |--3-----------------|--8------------|

(F#) (B)
|--3--|
E S S S E E a E E +Q +H Q Q
 
 |----------------------------------|-----------------|
 |----------------------------------|-----------------|
 |-12-11h12p11----------------------|-----------------|
 |-------------14-12----------------|-----------------|
 |-------------------14s12-10-(10)--|-(10)----12--10--|
 |----------------------------------|-----------------|

|
| PM
| Q Q Q Q W
 
 |----------------------------------|-----------------|
 |----------------------------------|-----------------|
 |----------------------------------|-----------------|
 |-----------------------4-----/7---|-----------------|
 |--------------3-------------------|-----------------|
 |--2-------------------------------|---7-------------|

W W
(E) N.C.
E E Q E E Q +W
 
 |---------------------|----------------|
 |---------------------|----------------|
 |---------------------|----------------|
 |-------12--14-12-14--|-(14)-----------|
 |-12s14---------------|----------------|
 |---------------------|----------------|

|
| Q Q Q Q E E E E H
 
 |---------------------|----------------|
 |---------------------|----------------|
 |-----------------/6--|---4h6p4h6p4----|
 |------------2----/7--|---6h7p6h7p6----|
 |--------2------------|----------------|
 |--0------------------|----------------|

H. Q E E E E H
N.C.(Am) (D) (G)
|--3--|
H.. E H E E S S S E E E E E E +E +E +E
 
 |------------------22-|-----------------------------|-------------------------------------|
 |-22b24---------------|-22pb24----19-20-19-20-19----|-19-15-------------------------------|
 |---------------------|--------------------------21-|-------16----------------------------|
 |---------------------|-----------------------------|----------17-16-(16)b17-(16)-(16)b17-|
 |---------------------|-----------------------------|-------------------------------------|
 |---------------------|-----------------------------|-------------------------------------|

|
| PM PM
| Q Q Q Q W Q Q Q Q
 
 |---------------------|-----------------------------|-------------------------------------|
 |---------------------|-----------------------------|-------------------------------------|
 |---------------------|-----------------------------|-------------------------------------|
 |-----------7--/10----|-----------------------------|--------------5----------/9----------|
 |--------7------------|-----------------------------|--------5----------------------------|
 |--5------------------|-10--------------------------|--3----------------------------------|

[(C)]  
[+E] [+E] [+E] [+E] [+E] [+E] [+E] [+E]  
 
 |-------------------------------------------------------|
 |-------------------------------------------------------|
 |-------------------------------------------------------|
 |-(16)-(16)b17-(16)-(16)b17-(16)-(16)b17-(16)-(16)b17---|
 |-------------------------------------------------------|
 |-------------------------------------------------------|

|
| W
 
 |-------------------------------------------------------|
 |-------------------------------------------------------|
 |-------------------------------------------------------|
 |-------------------------------------------------------|
 |-------------------------------------------------------|
 |---8---------------------------------------------------|

(F#)
[+E] [+E] [+E] [+E] [+E] [+E] [E] [E]  
 
 |-----------------------------------------------|
 |-----------------------------------------------|
 |--------------------------------------------12-|
 |-(16)-(16)b17-(16)-(16)b17-(16)-(16)b17-/14----|
 |-----------------------------------------------|
 |-----------------------------------------------|

|
| PM
| Q Q Q Q
 
 |-----------------------------------------------|
 |-----------------------------------------------|
 |-----------------------------------------------|
 |-----------------------------4-----------/7----|
 |----------------3------------------------------|
 |---2-------------------------------------------|

W
(B) (E) N.C.
H E E +E E H. Q +W
 
 |----------------------------|------------------|----------------|
 |----------15----------------|------------------|----------------|
 |-14b16-------14pb16r(14)-12-|------------(16)--|-(16)-----------|
 |----------------------------|-14---------(14)--|-(14)-----------|
 |----------------------------|------------------|----------------|
 |----------------------------|------------------|----------------|

|
| W Q Q Q Q E E E E H
 
 |----------------------------|------------------|----------------|
 |----------------------------|------------------|----------------|
 |----------------------------|-------------/6---|---4h6p4h6p4----|
 |----------------------------|---------2---/7---|---6h7p6h7p6----|
 |----------------------------|------2-----------|----------------|
 |--7-------------------------|--0---------------|----------------|

W H. Q E E E E H
[(Am)]Q E E Q Q [(D)] W [(G)]Q E E Q Q [(C)]W
 
 ||--------------------|-----------|-----------------|------|
 ||o----10-12-13-------|-----------|----8-10-12------|------|
 ||----------------12--|-11--------|-------------11--|-9----|
 ||--------------------|-----------|-----------------|------|
 ||o-------------------|-----------|-----------------|------|
 ||--------------------|-----------|-----------------|------|

|
| PM PM
| Q Q Q Q W Q Q Q Q W
 
 ||--------------------|-----------|-----------------|------|
 ||o-------------------|-----------|-----------------|------|
 ||--------------------|-----------|-----------------|------|
 ||------------7--/10--|-----------|----------5--/9--|------|
 ||o-----7-------------|-----------|----5------------|------|
 ||--5-----------------|-10--------|-3---------------|-8----|

1.
(F#) (B) (E) N.C.
Q E E Q Q E E E E E E E E H. Q W
 
 |----------------|--------------------|----------------|----------------||
 |----7-8-10------|--------------------|----------------|---------------o||
 |-------------9--|-8-9-11-8------8-11-|-9---------/14--|-13-------------||
 |----------------|----------9-11------|----------------|----------------||
 |----------------|--------------------|----------------|---------------o||
 |----------------|--------------------|----------------|----------------||

|
| PM
| Q Q Q Q W Q Q Q Q E E E E H
 
 |----------------|--------------------|----------------|----------------||
 |----------------|--------------------|----------------|---------------o||
 |----------------|--------------------|------------/6--|--4h6p4h6p4-----||
 |---------4--/7--|--------------------|--------2---/7--|--6h7p6h7p6-----||
 |----3-----------|--------------------|-----2----------|---------------o||
 |-2--------------|-7------------------|-0--------------|----------------||

W W H. Q E E E E H
2.
(F#) (B) (E)
Q E E Q Q E E E E E E E E E E E E E E E E W
 
 |----------------|--------------------|-----------------------|----------------|
 |----7-8-10------|--------------------|--------------------10-|-/12------------|
 |-------------9--|-8-9-11-8------8-11-|-9--8-9-11-12-11-12----|----------------|
 |----------------|----------9-11------|-----------------------|----------------|
 |----------------|--------------------|-----------------------|----------------|
 |----------------|--------------------|-----------------------|----------------|

|
| PM
| Q Q Q Q W Q Q Q Q E E E E H
 
 |----------------|--------------------|-----------------------|----------------|
 |----------------|--------------------|-----------------------|----------------|
 |----------------|--------------------|-----------------/6----|---4h6p4h6p4----|
 |---------4--/7--|--------------------|------------2----/7----|---6h7p6h7p6----|
 |----3-----------|--------------------|------2----------------|----------------|
 |-2--------------|-7------------------|-0---------------------|----------------|

W W H. Q E E E E H
[(Am)]Gtr III[(D)]
Q E E Q Q E E E E E E E E
 
 ||------8-10-12-------|-------------------------|
 ||o----10-12-13---12--|-10-12-13-10-------10-13-|
 ||----------------12--|-11-12-14-11-11-12-11-14-|
 ||--------------------|-------------12-14-------|
 ||o-------------------|-------------------------|
 ||--------------------|-------------------------|

| Q E E Q Q E E E E E E E E
|
| Gtrs I, II
| PM
| Q Q Q Q W
 
 ||--------------------|-------------------------|
 ||o-------------------|-------------------------|
 ||--------------------|-------------------------|
 ||------------7--/10--|-------------------------|
 ||o-----7-------------|-------------------------|
 ||--5-----------------|-10----------------------|

[(G)]Q E E Q Q [(C)]E E E E E E E E
 
 |-7--7--8-10------|-----------------------|
 |-8--8-10-12--10--|-8-10-12-8-------8-12--|
 |-------------11--|-9-11-12-9--9-11-9-12--|
 |-----------------|-----------10-12-------|
 |-----------------|-----------------------|
 |-----------------|-----------------------|

| Q E E Q Q E E E E E E E E
|
| PM
| Q Q Q Q W
 
 |-----------------|-----------------------|
 |-----------------|-----------------------|
 |-----------------|-----------------------|
 |----------5--/9--|-----------------------|
 |----5------------|-----------------------|
 |-3---------------|-8---------------------|

(F#) (B)
Q E E Q Q E E E E E E E E
 
 |-5--5-7--8------|--------------------|
 |-7-

Important: The song above is NOT stored on the Chordie server. The original song is hosted at www.guitaretab.com. Chordie works as a search engine and provides on-the-fly formatting. Chordie does not index songs against artists'/composers' will. To remove this song please click here.

Text color:
Chord color:
Chord grids: 
Font size:    
Page size: 

B B5 Bb5 C#5 D5 E E5 F#5 G5
Rate #1 of 1 versions

Login - add to songbook

SHARE PAGE  




You need to log in to post comments