Guitar Tabs, Chords and Lyrics
Server problems seems to be fixed. Chordie has been experiencing problems with songs disappearing. These issues now seems to be fixed, but still verifying the fix. If you find anything strange, please email admin@chordie.com.


Machtkampf  Arch Enemy

MACHTKAMPF
As recorded by Arch Enemy
(From the 2005 Album DOOMSDAY MACHINE)
Words by Michael Amott
Music by Michael Amott, Daniel Erlandsson, Christopher Amott.
Transcribed by SoggieMufin
Gtr I (C F Bb Eb G C) - 'Untitled'
Gtr II (C F Bb Eb G C) - 'Untitled'
Gtr III (C F Bb Eb G C) - 'Untitled'
Gtr IV (C F Bb Eb G C) - 'Untitled'
Gtr V (C F Bb Eb G C) - 'Untitled'
Intro
Q=158
N.C.
[4/4] Gtrs I, II
Wx3 S S S S S S S S S S S S S S S S
 
 |------------|---------------------------------|
 |------------|---------------------------------|
 |------------|---------------------------------|
 |------------|-----------------3h6p3h6---------|
 |------------|---------2h5p2h5---------2h5p2h5-|
 |------------|-1h4p1h4-------------------------|
 PM----| PM----| PM----| PM----|

S S S S S S S S S S S S S S S S S S S S S S S S S S S S S S S S
 
 ||----------------------------------|----------------------------------|
 ||o---------------------------------|----------------------------------|
 ||----------------------------------|----------------------------------|
 ||----------------------------------|----------------------------------|
 ||o-----------------------------2h5-|-----------------------------2h5--|
 ||--1p0-0-0-0-0-1p0-0-0-0-0-1h4-----|-1p0-0-0-0-0-1p0-0-0-0-0-1h4------|

Gtr I
 
 PM----| PM----|

S S S S S S S S S S S S S S S S
 
 |---------------------------------|
 |---------------------------------|
 |---------------------------------|
 |---------------------------------|
 |-----------------------------2h5-|
 |-1p0-0-0-0-0-1p0-0-0-0-0-1h4-----|

|
| Gtr II
 
 | PM----| PM----|

| S S S S S S S S S S S S S S S S
 
 |---------------------------------|
 |---------------------------------|
 |---------------------------------|
 |---------------------------------|
 |-----------------------------2h5-|
 |-1p0-0-0-0-0-1p0-0-0-0-0-1h4-----|

1. 2.
S S S S S S S S S S S S S S S S S S S S S S S S S S S S S S S S
 
 |----------------------------------||---------------------------------|
 |---------------------------------o||---------------------------------|
 |----------------------------------||-----------------5h8p5h8---------|
 |-----------------3h6p3h6----------||---------4h7p4h7---------4h7p4h7-|
 |---------2h5p2h5---------2h5p2h5-o||-3h6p3h6-------------------------|
 |-1h4p1h4--------------------------||---------------------------------|

|
| S S S S S S S S S S S S S S S S S S S S S S S S S S S S S S S S
 
 |----------------------------------||---------------------------------|
 |---------------------------------o||---------------------------------|
 |----------------------------------||---------------------------------|
 |-----------------3h6p3h6----------||-----------------3h6p3h6---------|
 |---------2h5p2h5---------2h5p2h5-o||---------2h5p2h5---------2h5p2h5-|
 |-1h4p1h4--------------------------||-1h4p1h4-------------------------|

N.C.
Gtr I
 
 PM----| PM----|

E S E S Q E S S S S E S E S Q E S S S S
 
 |----------------------|------------------------|
 |----------------------|------------------------|
 |----------------------|-10---10---9--9---------|
 |----------------------|------------------------|
 |----------------------|--8----8---7--7---------|
 |-0---0---0--0-5-6-7-8-|----------------0-0-0-0-|

Gtr I
 
 PM----| PM----|

E S E S Q E S S S S E S E S Q E S S S S
 
 |----------------------|------------------------|
 |----------------------|-10---10---9--9---------|
 |----------------------|------------------------|
 |----------------------|--7----7---6--6---------|
 |----------------------|------------------------|
 |-0---0---0--0-5-6-7-8-|----------------0-0-0-0-|

|
| Gtr II
 
 | PM----| PM----|

| E S E S Q E S S S S E S E S Q E S S S S
 
 |----------------------|------------------------|
 |----------------------|------------------------|
 |----------------------|-10---10---9--9---------|
 |----------------------|------------------------|
 |----------------------|--8----8---7--7---------|
 |-0---0---0--0-5-6-7-8-|----------------0-0-0-0-|

N.C. F5 E5 N.C.
Gtrs I, II
 
 PM----| PM----|

E S E S Q E S S S S E S E S Q E S S S S
 
 |----------------------|------------------------|
 |----------------------|------------------------|
 |----------------------|-10---10---9--9---------|
 |----------------------|-10---10---9--9---------|
 |----------------------|--8----8---7--7---------|
 |-0---0---0--0-5-6-7-8-|----------------0-0-0-0-|

E S E S Q E E E E S E S E +Q Q
 
 |------------------|--------------------|
 |------------------|--------------------|
 |------------------|--------------------|
 |------------5-----|--------------------|
 |--------------3---|--------------------|
 |-0---0---0------2-|-1---1---0-(0)--7\--|

Gtr III
\2.5____/
[B] [a] [+B] [+B] [+B]  
 
 |-----------(x)----(24)-----------|-(24)----------(24)-----------|
 |---------------------------------|------------------------------|
 |---------------------------------|------------------------------|
 |---------------------------------|------------------------------|
 |---------------------------------|------------------------------|
 |---------------------------------|------------------------------|

|
| Gtrs I, II
 
 | PM----| PM----|

| E S E S Q E S S S S E S E S Q E S S S S
 
 |---------------------------------|------------------------------|
 |---------------------------------|------------------------------|
 |---------------------------------|--10----10---9------9---------|
 |---------------------------------|------------------------------|
 |---------------------------------|---8-----8---7------7---------|
 |-0---0---0-------------0-5-6-7-8-|----------------------0-0-0-0-|

N.C.
Gtr III
\2.5____/
[+B] [a] [+B] [+B] [+B]  
 
 |-(24)---------(x)----(24)-----------|-(24)----------(24)-----------|
 |------------------------------------|------------------------------|
 |------------------------------------|------------------------------|
 |------------------------------------|------------------------------|
 |------------------------------------|------------------------------|
 |------------------------------------|------------------------------|

|
| Gtr I
 
 | PM----| PM----|

| E S E S Q E S S S S E S E S Q E S S S S
 
 |------------------------------------|------------------------------|
 |------------------------------------|--10----10---9------9---------|
 |------------------------------------|------------------------------|
 |------------------------------------|---7-----7---6------6---------|
 |------------------------------------|------------------------------|
 |---0----0---0-------------0-5-6-7-8-|----------------------0-0-0-0-|

|
| Gtr II
 
 | PM----| PM----|

| E S E S Q E S S S S E S E S Q E S S S S
 
 |------------------------------------|------------------------------|
 |------------------------------------|------------------------------|
 |------------------------------------|--10----10---9------9---------|
 |------------------------------------|------------------------------|
 |------------------------------------|---8-----8---7------7---------|
 |---0----0---0-------------0-5-6-7-8-|----------------------0-0-0-0-|

F5 E5 N.C.
Gtr III
\2.5____/
[+B] [a] [+B] [+B] [+B]  
 
 |-(24)---------(x)----(24)-----------|-(24)----------(24)-----------|
 |------------------------------------|------------------------------|
 |------------------------------------|------------------------------|
 |------------------------------------|------------------------------|
 |------------------------------------|------------------------------|
 |------------------------------------|------------------------------|

|
| Gtrs I, II
 
 | PM----| PM----|

| E S E S Q E S S S S E S E S Q E S S S S
 
 |------------------------------------|------------------------------|
 |------------------------------------|------------------------------|
 |------------------------------------|--10----10---9------9---------|
 |------------------------------------|--10----10---9------9---------|
 |------------------------------------|---8-----8---7------7---------|
 |---0----0---0-------------0-5-6-7-8-|----------------------0-0-0-0-|

\2.5____/
[+B] [a] [+B] [+B] [+B]  
 
 |-(24)---------(x)----(24)-------|-(24)---------(24)-----||
 |--------------------------------|-----------------------||
 |--------------------------------|-----------------------||
 |--------------------------------|-----------------------||
 |--------------------------------|-----------------------||
 |--------------------------------|-----------------------||

|
| E S E S Q E E E E S E S E +Q Q
 
 |--------------------------------|-----------------------||
 |--------------------------------|-----------------------||
 |--------------------------------|-----------------------||
 |--------------------------5-----|-----------------------||
 |----------------------------3---|-----------------------||
 |---0----0---0-----------------2-|---1----1---0--(0)-----||

Verse
N.C.
Gtrs I, II
 
 PM----| PM----| PM| PM----| PM----| PM|

S S S S S S S S S S S S S S S S S S S S S S S S S S S S S S S S
 
 ||----------------------------------|----------------------------------|
 ||o---------------------------------|----------------------------------|
 ||----------------------------------|----------------------------------|
 ||----------------------------------|----------------------------------|
 ||o---------------------------------|----------------------------------|
 ||--3p0-0-0-0-0-3p0-0-0-0-0-4p0-0-0-|-3p0-0-0-0-0-3p0-0-0-0-0-4p0-0-0--|
 PM----| PM----| PM| PM----| PM----| PM|

S S S S S S S S S S S S S S S S S S S S S S S S S S S S S S S S
 
 |---------------------------------|----------------------------------||
 |---------------------------------|---------------------------------o||
 |---------------------------------|----------------------------------||
 |---------------------------------|----------------------------------||
 |---------------------------------|---------------------------------o||
 |-3p0-0-0-0-0-3p0-0-0-0-0-4p0-0-0-|-2p0-0-0-0-0-2p0-0-0-0-0-2p0-0-0--||

$
N.C.
Gtr III
[E] [E] [E] [E] [E] [E] [E] [E]  
 
 ||-------------------------------------|
 ||o------------------------------------|
 ||---9---9---9----9---9---9----9---9---|
 ||-------------------------------------|
 ||o------------------------------------|
 ||-------------------------------------|

|
| Gtrs I, II
 
 | PM----| PM----| PM|

| S S S S S S S S S S S S S S S S
 
 ||-------------------------------------|
 ||o------------------------------------|
 ||-------------------------------------|
 ||-------------------------------------|
 ||o------------------------------------|
 ||--12p0-0-0-0-0-12p0-0-0-0-0-12p0-0-0-|

[E] [E] [E] [E] [E] [E] [E] [E]  
 
 |----------------------------------------|
 |----------------------------------------|
 |--9---9---9----9---12---12---12---12----|
 |----------------------------------------|
 |----------------------------------------|
 |----------------------------------------|

|
 
 | PM----| PM-----| PM|

| S S S S S S S S S S S S S S S S
 
 |----------------------------------------|
 |----------------------------------------|
 |----------------------------------------|
 |----------------------------------------|
 |----------------------------------------|
 |-12p0-0-0-0-0-12p0--0-0--0-0-15p0--0-0--|

1.
[E] [E] [E] [E] [E] [E] [E] [E] [E] [E] [E] [E] [E] [E] [E] [E]  
 
 |------------------------------------|----------------------------------||
 |------------------------------------|---------------------------------o||
 |--7---7---7----7---7---7----7---7---|-6---6---6---6---6---6---6---6----||
 |------------------------------------|----------------------------------||
 |------------------------------------|---------------------------------o||
 |------------------------------------|----------------------------------||

|
 
 | PM----| PM----| PM| PM----| PM----| PM|

| S S S S S S S S S S S S S S S S S S S S S S S S S S S S S S S S
 
 |------------------------------------|----------------------------------||
 |------------------------------------|---------------------------------o||
 |------------------------------------|----------------------------------||
 |------------------------------------|----------------------------------||
 |------------------------------------|---------------------------------o||
 |-10p0-0-0-0-0-10p0-0-0-0-0-10p0-0-0-|-9p0-0-0-0-0-9p0-0-0-0-0-9p0-0-0--||

2.
Gtr III
[E] [E] [E] [E] [E] [E] [E] [E] [B] [B]  
 
 |------------------------------------|---------------------------------|
 |------------------------------------|---------------------------------|
 |--7---7---7----7---7---7----7---7---|-6\------------------------------|
 |------------------------------------|---------------------------------|
 |------------------------------------|---------------------------------|
 |------------------------------------|---------------------------------|

|
| Gtr I
 
 | PM----| PM----| PM|

| S S S S S S S S S S S S S S S S S S S S S S S S S S S S S S S S
 
 |------------------------------------|---------------------------------|
 |------------------------------------|---------------------------------|
 |------------------------------------|-----------------5h8p5h8---------|
 |------------------------------------|---------4h7p4h7---------4h7p4h7-|
 |------------------------------------|-3h6p3h6-------------------------|
 |-10p0-0-0-0-0-10p0-0-0-0-0-10p0-0-0-|---------------------------------|

|
| Gtr II
 
 | PM----| PM----| PM|

| S S S S S S S S S S S S S S S S S S S S S S S S S S S S S S S S
 
 |------------------------------------|---------------------------------|
 |------------------------------------|---------------------------------|
 |------------------------------------|---------------------------------|
 |------------------------------------|-----------------3h6p3h6---------|
 |------------------------------------|---------2h5p2h5---------2h5p2h5-|
 |-10p0-0-0-0-0-10p0-0-0-0-0-10p0-0-0-|-1h4p1h4-------------------------|

Chorus
[E5]Gtrs I[Emb5], II[C5] [A5] [E5] [Emb5] [C5] [D5]
E E E E +E E Q E E E E +E E Q E E E E +E E Q E E E E +E E Q
 
 |------------------|------------------|------------------|------------------|
 |------------------|------------------|------------------|------------------|
 |------------------|------------------|------------------|------------------|
 |-9-9-9-8-(8)-8-8--|-5-5-5------------|-9-9-9-8-(8)-8-8--|-5-5-5-7-(7)-7-7--|
 |-7-7-7-7-(7)-7-7--|-3-3-3-7-(7)-7-7--|-7-7-7-7-(7)-7-7--|-3-3-3-5-(5)-5-5--|
 |------------------|-------5-(5)-5-5--|------------------|------------------|

To Coda
N.C. G5 F#5 B5
Gtr I
PM PM
E E E E +E E Q E E E E +H W H H
 
 |--------------------|----------------|----------|-----------||
 |--------------------|----------------|----------|-----------||
 |--------------------|----------------|----------|-----------||
 |--9----9-8-(8)------|-7---7-6-(6)----|----------|------4----||
 |----7----------7----|---5------------|-5--------|-4----2----||
 |--------------------|----------------|-3--------|-2---------||

|
| Gtr II
| PM PM
| E E E E +E E Q E E E E +H W H H
 
 |--------------------|----------------|----------|-----------||
 |--------------------|----------------|----------|-----------||
 |--------------------|----------------|----------|-----------||
 |--------------------|----------------|----------|------4----||
 |-10-7-10-9-(9)-7----|-8-5-8-7-(7)----|-5--------|-4----2----||
 |--------------------|----------------|-3--------|-2---------||

Lead - Michael Amott
N.C.
Gtr III
Q. +E +H
 
 |-17b19-------(17tr20)pb19-(17tr20)pb19-----------|
 |-------------------------------------------------|
 |-------------------------------------------------|
 |-------------------------------------------------|
 |-------------------------------------------------|
 |-------------------------------------------------|

|
| Gtrs I, II
| PM----|
| E S E S Q E S S S S
 
 |-------------------------------------------------|
 |-------------------------------------------------|
 |-------------------------------------------------|
 |-------------------------------------------------|
 |-------------------------------------------------|
 |--0------0-----0-----------------------0-5-6-7-8-|

+Q. +E E +E E +E
 
 |-(17tr20)pb19--------(17)-17b19r(17)-17b19r==(17)---|
 |----------------------------------------------------|
 |----------------------------------------------------|
 |----------------------------------------------------|
 |----------------------------------------------------|
 |----------------------------------------------------|

|
 
 | PM----------|

| E S E S Q E S S S S
 
 |----------------------------------------------------|
 |----------------------------------------------------|
 |--10------------10-----9----------9-----------------|
 |----------------------------------------------------|
 |---8-------------8-----7----------7-----------------|
 |--------------------------------------0----0---0--0-|

F E N.C.
 
 |---3---| |----3----|

Q E E E E E E E E +Q S S E +H
 
 |-17---------------------16----------------|-----------------------------------|
 |--------16---------15---------------------|-----------------------------------|
 |-------------15-14---------12---14---12---|-(12)------------------------------|
 |------------------------------------------|-----------14-12-14-(14)-----------|
 |------------------------------------------|-----------------------------------|
 |------------------------------------------|-----------------------------------|

|
 
 | PM----------| PMPM--|

| E S E S Q E S S S S E S E S Q E S S S S
 
 |------------------------------------------|-----------------------------------|
 |------------------------------------------|--10----10--------9------9---------|
 |------------------------------------------|--10----10--------9------9---------|
 |------------------------------------------|---7-----7--------6------6---------|
 |------------------------------------------|---8-----8--------7------7---------|
 |--0---0-------0-------0-----5-6----7----8-|---------------------------0-0-0-0-|

E S E S Q E Q
H +E E +Q
 
 |----------------------------------------------|
 |----------------------------------------------|
 |-[14]b16---------(14)pb16-14b16r(14)b16-------|
 |----------------------------------------------|
 |----------------------------------------------|
 |----------------------------------------------|

|
 
 | PM--------|

| E S E S Q E S S S S
 
 |----------------------------------------------|
 |----------------------------------------------|
 |----------------------------------------------|
 |----------------------------------------------|
 |----------------------------------------------|
 |---0-------0---0-----------0------5-----6-7-8-|

F5 E5 N.C.
 
 |--------6--------| |-------6--------| |------6-------| |--------6---------|

S S S S S S S S S S S S S S S S S S S S S S S S
 
 |-11h12h15-------------11h12h==15----------11h12h15----------11h12h==15-------------|
 |----------11h12h===15------------11h12h15----------11h12h15------------11h12h==15--|
 |-----------------------------------------------------------------------------------|
 |-----------------------------------------------------------------------------------|
 |-----------------------------------------------------------------------------------|
 |-----------------------------------------------------------------------------------|

|
 
 | PM--------------|

| E S E S Q E S S S S
 
 |-----------------------------------------------------------------------------------|
 |-----------------------------------------------------------------------------------|
 |-10-------------10----------------9-----------------9------------------------------|
 |-10-------------10----------------9-----------------9------------------------------|
 |--8--------------8----------------7-----------------7------------------------------|
 |-------------------------------------------------------------0----0-----0----0-----|
 |-------6--------| |-------6--------| |------6-------| |------6-------|

S S S S S S S S S S S S S S S S S S S S S S S S
 
 |-11h12h15--------------------------------11h12h15----------------------------|
 |----------11h12h==15------------11h12h15----------11h12h15----------11h12h15-|
 |---------------------11h12h==15----------------------------11h12h15----------|
 |-----------------------------------------------------------------------------|
 |-----------------------------------------------------------------------------|
 |-----------------------------------------------------------------------------|

|
| E S E S Q E E E
 
 |-----------------------------------------------------------------------------|
 |-----------------------------------------------------------------------------|
 |-----------------------------------------------------------------------------|
 |---------------------------------------------------5-------------------------|
 |------------------------------------------------------------3----------------|
 |--0-------------0----------------0-----------------------------------2-------|

E. S +E E Q +Q
 
 |-17b19---17b19-(17)pb19---17b19-17b19r=(17)b19----||
 |--------------------------------------------------||
 |--------------------------------------------------||
 |--------------------------------------------------||
 |--------------------------------------------------||
 |--------------------------------------------------||

|
| E S E S E +Q Q
 
 |--------------------------------------------------||
 |--------------------------------------------------||
 |--------------------------------------------------||
 |--------------------------------------------------||
 |--------------------------------------------------||
 |--1-------1----------------0----(0)---------------||

Verse
N.C.
+Q H. W
 
 |-(17)pb19--------------------------------|---------------------------------|
 |-----------------------------------------|---------------------------------|
 |-----------------------------------------|---------------------------------|
 |-----------------------------------------|---------------------------------|
 |-----------------------------------------|---------------------------------|
 |-----------------------------------------|---------------------------------|

|
 
 | PM-----| PM----| PM| PM----| PM----| PM|

| S S S S S S S S S S S S S S S S S S S S S S S S S S S S S S S S
 
 |-----------------------------------------|---------------------------------|
 |-----------------------------------------|---------------------------------|
 |-----------------------------------------|---------------------------------|
 |-----------------------------------------|---------------------------------|
 |-----------------------------------------|---------------------------------|
 |---3p=====0-0-0-0--0-3p0-0-0-0-0-4p0-0-0-|-3p0-0-0-0-0-3p0-0-0-0-0-4p0-0-0-|

Gtrs I, II
 
 PM----| PM----| PM| PM----| PM----| PM|

S S S S S S S S S S S S S S S S S S S S S S S S S S S S S S S S
 
 |---------------------------------|---------------------------------|
 |---------------------------------|---------------------------------|
 |---------------------------------|---------------------------------|
 |---------------------------------|---------------------------------|
 |---------------------------------|---------------------------------|
 |-3p0-0-0-0-0-3p0-0-0-0-0-4p0-0-0-|-2p0-0-0-0-0-2p0-0-0-0-0-2p0-0-0-|
 PM----| PM----| PM| PM----| PM----| PM|

S S S S S S S S S S S S S S S S S S S S S S S S S S S S S S S S
 
 |---------------------------------|---------------------------------|
 |---------------------------------|---------------------------------|
 |---------------------------------|---------------------------------|
 |---------------------------------|---------------------------------|
 |---------------------------------|---------------------------------|
 |-3p0-0-0-0-0-3p0-0-0-0-0-4p0-0-0-|-3p0-0-0-0-0-3p0-0-0-0-0-4p0-0-0-|

D.S. al Coda
 
 PM--| PM----| PM| PM----| PM----| PM|

S S S S S S S S S S S S S S S S S S S S S S S S S S S S S S S S
 
 |---------------------------------|---------------------------------|
 |---------------------------------|---------------------------------|
 |---------------------------------|---------------------------------|
 |---------------------------------|---------------------------------|
 |---------------------------------|---------------------------------|
 |-3p0-0-0-0-0-3p0-0-0-0-0-4p0-0-0-|-2p0-0-0-0-0-2p0-0-0-0-0-2p0-0-0-|

Chorus
&
[E5]E E E [Emb5]E +E E Q [C5]E E E [A/C#]E +E E Q [E5]E E E [Emb5]E +E E Q [C5]E E E [D5]E +E E Q
 
 |------------------|------------------|------------------|------------------|
 |------------------|------------------|------------------|------------------|
 |------------------|------------------|------------------|------------------|
 |-9-9-9-8-(8)-8-8--|-5-5-5-7-(7)-7-7--|-9-9-9-8-(8)-8-8--|-5-5-5-7-(7)-7-7--|
 |-7-7-7-7-(7)-7-7--|-3-3-3-4-(4)-4-4--|-7-7-7-7-(7)-7-7--|-3-3-3-5-(5)-5-5--|
 |------------------|------------------|------------------|------------------|

N.C. G5 F#5 F5
Gtr I
 
 PM PM PM--------|

|-3-| |-3-|
E E E E +E E Q E E E E +H W Q Q Q Q Q Q
 
 |--------------------|----------------|----------|-------------||
 |--------------------|----------------|----------|-------------||
 |--------------------|----------------|----------|-------------||
 |--9----9-8-(8)------|-7---7-6-(6)----|----------|-------------||
 |----7----------7----|---5------------|-5--------|-4-4-4-3-3-3-||
 |--------------------|----------------|-3--------|-2-2-2-1-1-1-||

|
| Gtr II
 
 | PM PM PM--------|

| |-3-| |-3-|
| E E E E +E E Q E E E E +H W Q Q Q Q Q Q
 
 |--------------------|----------------|----------|-------------||
 |--------------------|----------------|----------|-------------||
 |--------------------|----------------|----------|-------------||
 |--------------------|----------------|----------|-------------||
 |-10-7-10-9-(9)-7----|-8-5-8-7-(7)----|-5--------|-4-4-4-3-3-3-||
 |--------------------|----------------|-3--------|-2-2-2-1-1-1-||

Bridge
N.C.
Gtrs I, II
PM PM| PM PM|
E E Q E E E E +Q E E E E Q E E Q E E E E +Q E E E E Q
 
 |----------------|-------------------|----------------|-----------------|
 |----------------|-------------------|----------------|-----------------|
 |----------------|-------------------|----------------|-----------------|
 |----------------|-------------------|----------7-5-7-|-(7)------9-7-9--|
 |-7-6-7----9-7-9-|-(9)------10-9-10--|----------------|-----------------|
 |--------0-------|------0-0----------|-8-7-8--0-------|------0-0--------|

Gtr I
PM PM|
E E Q E E E E +Q E E E E Q
 
 |----------------|-------------------|
 |----------------|-------------------|
 |----------------|-------------------|
 |----------------|-------------------|
 |-7-6-7----9-7-9-|-(9)------10-9-10--|
 |--------0-------|------0-0----------|

|
| Gtr II
| PM PM|
| E E Q E E E E +Q E E E E Q
 
 |----------------|-------------------|
 |----------------|-------------------|
 |----------------|-------------------|
 |----------------|-------------------|
 |-7-6-7----9-7-9-|-(9)------10-9-10--|
 |--------0-------|------0-0----------|

[E] [E] [E] [E] [E] [E] [E] [E] [E] [E] [E] [E] [E] [E] [E] [E]  
 
 |-------------------------|-------------------------|
 |-------------------------|-------------------------|
 |-12s11-11-11-11-11-11-11-|-11-11-11-11-11-11-11-11-|
 |-------------------------|-------------------------|
 |-10s=9--9--9--9--9--9--9-|--9--9--9--9--9--9--9--9-|
 |-------------------------|-------------------------|

|
| E E E E E E E E E E E E E E E E
 
 |-------------------------|-------------------------|
 |-------------------------|-------------------------|
 |--7--7--7--7--7--7--7--7-|--8--8--8--8--8--8--8--8-|
 |-------------------------|-------------------------|
 |--5--5--5--5--5--5--5--5-|--6--6--6--6--6--6--6--6-|
 |-------------------------|-------------------------|

N.C.
PM PM|
E E Q E E E E +Q E E E E Q
 
 |---------------------|---------------------|
 |---------------------|---------------------|
 |---------------------|---------------------|
 |---------------------|---------------------|
 |-10-9-10----12-10-12-|-(12)------14-12-14--|
 |----------0----------|-------0-0-----------|

|
| E E Q E E E E +Q E E E E Q
 
 |---------------------|---------------------|
 |---------------------|---------------------|
 |---------------------|---------------------|
 |---------------------|---------------------|
 |--7-6--7-----9--7--9-|--(9)------10--9-10--|
 |----------0----------|-------0-0-----------|

PM PM|
E E Q E E E E +Q E E E E Q
 
 |------------------|------------------|
 |------------------|------------------|
 |------------------|-----------8-5-8--|
 |----------10-9-10-|-(10)-------------|
 |-7-6-7------------|------------------|
 |--------0---------|-------0-0--------|

|
| E E Q E E E E +Q E E E E Q
 
 |------------------|------------------|
 |------------------|------------------|
 |------------------|------------------|
 |-----------7-5--7-|--(7)------9-7-9--|
 |------------------|------------------|
 |-8-7-8--0---------|-------0-0--------|

PM PM|
E E Q E E E E +Q E E E E Q
 
 |---------------------|---------------------|
 |---------------------|---------------------|
 |---------------------|---------------------|
 |---------------------|---------------------|
 |-10-9-10----12-10-12-|-(12)------14-12-14--|
 |----------0----------|-------0-0-----------|

|
| PM PM|
| E E Q E E E E +Q E E E E Q
 
 |---------------------|---------------------|
 |---------------------|---------------------|
 |---------------------|---------------------|
 |---------------------|---------------------|
 |--7-6--7-----9--7--9-|--(9)------10--9-10--|
 |----------0----------|-------0-0-----------|

[E] [E] [E] [E] [E] [E] [E] [E] [E] [E] [E] [E] [E] [E] [E] [E]  
 
 |-------------------------|-------------------------|
 |-------------------------|-------------------------|
 |-12s11-11-11-11-11-11-11-|-11-11-11-11-11-11-11-11-|
 |-------------------------|-------------------------|
 |-10s=9--9--9--9--9--9--9-|--9--9--9--9--9--9--9--9-|
 |-------------------------|-------------------------|

|
| E E E E E E E E E E E E E E E E
 
 |-------------------------|-------------------------|
 |-------------------------|-------------------------|
 |--7--7--7--7--7--7--7--7-|--8--8--8--8--8--8--8--8-|
 |-------------------------|-------------------------|
 |--5--5--5--5--5--5--5--5-|--6--6--6--6--6--6--6--6-|
 |-------------------------|-------------------------|

E5 N.C.
W W
 
 |-----------|--------||
 |-----------|--------||
 |-----------|--------||
 |-2/--------|-14/----||
 |-----------|--------||
 |-----------|--------||

|
| Gtr IV
| TP
| W W
 
 |-----------|--------||
 |-----------|--------||
 |-----------|--------||
 |-----------|--------||
 |-2---------|--x\----||
 |-0---------|--x\----||

Lead - Michael Amott
[E5]Gtr III[Emb5]
Q +E +E H
 
 |-22b24====(22)r(22)-22b24------|
 |-------------------------------|
 |-------------------------------|
 |-------------------------------|
 |-------------------------------|
 |-------------------------------|

|
| Gtrs I, II
| E E E E +E E Q
 
 |-------------------------------|
 |-------------------------------|
 |-------------------------------|
 |--9-----9---9----8--(8)---8-8--|
 |--7-----7---7----7--(7)---7-7--|
 |-------------------------------|

[C5] Q E [A5] E +H [E5] E E E [Emb5] E +E E E E
 
 |-22b24---22pb24-22pb24-(22)pb24------|-19-20-22-20-(20)-19-20-19-|
 |-------------------------------------|---------------------------|
 |-------------------------------------|---------------------------|
 |-------------------------------------|---------------------------|
 |-------------------------------------|---------------------------|
 |-------------------------------------|---------------------------|

|
| E E E E +E E Q E E E E +E E Q
 
 |-------------------------------------|---------------------------|
 |-------------------------------------|---------------------------|
 |-------------------------------------|---------------------------|
 |--5----5--5--------------------------|--9--9--9--8--(8)--8--8----|
 |--3----3--3------7------(7)-----7-7--|--7--7--7--7--(7)--7--7----|
 |-----------------5------(5)-----5-5--|---------------------------|

[C5] +E E E [D5] E +Q. +E
 
 |-(19)------------------------------------|
 |------22-20-22b24-(22)pb24-----(22)pb24\-|
 |-----------------------------------------|
 |-----------------------------------------|
 |-----------------------------------------|
 |-----------------------------------------|

|
| E E E E +E E Q
 
 |-----------------------------------------|
 |-----------------------------------------|
 |-----------------------------------------|
 |---5---5--5--7-----(7)-----7-7-----------|
 |---3---3--3--5-----(5)-----5-5-----------|
 |-----------------------------------------|

[E5] [D5]  
[E] [E] [E] [E] [+E] [E] [+E] [E] [E] [E] [E] [E] [+B]  
 
 |---------------------------|----------------------|
 |---------------------------|-/12-10----10-(10)----|
 |-9-11-12-11-(11)-12-(12)---|--------12------------|
 |---------------------------|----------------------|
 |---------------------------|----------------------|
 |---------------------------|----------------------|

|
| W W
 
 |---------------------------|----------------------|
 |---------------------------|----------------------|
 |---------------------------|----------------------|
 |-9-------------------------|---7------------------|
 |-7-------------------------|---5------------------|
 |---------------------------|----------------------|

[G5] Q +Q H [F#5] E +E E E [B5] +H
 
 |------------------------|----------------22-------------------||
 |-20b22--(20)pb22r=20----|-22b24-(22)pb24----22b24-(22)pb24----||
 |------------------------|-------------------------------------||
 |------------------------|-------------------------------------||
 |------------------------|-------------------------------------||
 |------------------------|-------------------------------------||

|
| W H H
 
 |------------------------|-------------------------------------||
 |------------------------|-------------------------------------||
 |------------------------|-------------------------------------||
 |------------------------|---------------------------4---------||
 |--5---------------------|--4------------------------2---------||
 |--3---------------------|--2----------------------------------||

Lead - Christopher Amott
N.C.
S S S S S S S S S S S S S S S S
 
 |---------------------------------------------------|
 |-17p15-------15p===13-------13p11-------11p9-------|
 |-------17-------------15----------13---------11----|
 |----------18-------------16----------14---------12-|
 |---------------------------------------------------|
 |---------------------------------------------------|

|
| Q +H.
 
 |---------------------------------------------------|
 |---------------------------------------------------|
 |---------------------------------------------------|
 |---------------------------------------------------|
 |---------------------------------------------------|
 |--3----------(3)b5---------------------------------|

S S S S S S S S S S S S S S S S
 
 |---------------------------------------|
 |--9p====7------7p5-----5p3-----3p1-----|
 |----------9--------7-------5-------3---|
 |------------10-------8-------6-------4-|
 |---------------------------------------|
 |---------------------------------------|

|
| +W
 
 |---------------------------------------|
 |---------------------------------------|
 |---------------------------------------|
 |---------------------------------------|
 |---------------------------------------|

|-(3)pb5r===============================|
[A5]Q +H [C5] +E [G5] S S
 
 |------------------------------------5-0-||
 |----------------------------------------||
 |----------------------------------------||
 |-5b7--(5)pb7--------------(5)pb7--------||
 |----------------------------------------||
 |----------------------------------------||

|
 
 | PM------------| PM----|

| Q S S S S S S E S S E
 
 |----------------------------------------||
 |----------------------------------------||
 |-----------------------12---------------||
 |-2---------------------10----------12---||
 |-0-----0-----0-0-0-0-0-----0-----0-10---||
 |----------------------------------------||

Q +E S S Q. [C5] [F5] S S
 
 |-------------------5p0-8------------5p0-|
 |---8b10--(8)pb10------------------------|
 |----------------------------------------|
 |----------------------------------------|
 |----------------------------------------|
 |----------------------------------------|

|
 
 | PM--------------| PM|

| +Q S S S S S S E S S E
 
 |----------------------------------------|
 |----------------------------------------|
 |----------------------------12----------|
 |-(12)-----------------------10-----10---|
 |-(10)-----0------0-0-0-0--0----0-0--8---|
 |----------------------------------------|

[F5] [C/E] [E5] ~
 
 |----3-----| |--3--| |-3--| |--3--|

Q +S S S S S S S +S S S S S S S E E E E E E H
 
 |-----------------5-------5------------------5-------|----------------------|
 |---8b10--(8)pb10---8p5-8---8b10r(8)---5---5---8---5-|----------------------|
 |----------------------------------------7-----------|--8--7-5--------------|
 |----------------------------------------------------|---------7-6---5------|
 |----------------------------------------------------|-----------------7----|
 |----------------------------------------------------|----------------------|

|
 
 | PM------------------------------------|

| +Q S S S S S S S S S S S S Q. E H
 
 |----------------------------------------------------|----------------------|
 |----------------------------------------------------|----------------------|
 |----------------------------------------------------|----------------------|
 |-(10)-----------------------------------------------|-10----------9---9----|
 |--(8)-----0------0-0-0-0-0-0--------0---0-0-0---0---|--7----------7---7----|
 |----------------------------------------------------|----------------------|

[A5] [C5] [G5]  
 
 |-----5-----| |--------5--------| |-------5--------| |-------5--------|

S S S S S S S S S S S S S S S S S S S S
 
 |-15-12----------15-12----------------15-12---------------15-12---------------|
 |-------13-12-13---------13---12---13---------13----12-13---------13----12-13-|
 |-----------------------------------------------------------------------------|
 |-----------------------------------------------------------------------------|
 |-----------------------------------------------------------------------------|
 |-----------------------------------------------------------------------------|

|
 
 | PM------------------------| PM---|

| Q S S S S S S E S S E
 
 |-----------------------------------------------------------------------------|
 |-----------------------------------------------------------------------------|
 |------------------------------------------------12---------------------------|
 |--2---------------------------------------------10------------------12-------|
 |--0--------------0----0----0----0-----0----0--------------0----0----10-------|
 |-----------------------------------------------------------------------------|

[C5] [F5]  
 
 |-----5------| |--------5--------| |-------5--------| |-------5--------|

S S S S S S S S S S S S S S S S S S S S
 
 |--17--13----------17-13----------------17-13---------------17-13------------------|
 |---------15-13-15---------15---13---15---------15----13-15---------15----13-15----|
 |----------------------------------------------------------------------------------|
 |----------------------------------------------------------------------------------|
 |----------------------------------------------------------------------------------|
 |----------------------------------------------------------------------------------|

|
 
 | PM------------------------| PM---|

| +Q S S S S S S E S S E
 
 |----------------------------------------------------------------------------------|
 |----------------------------------------------------------------------------------|
 |--------------------------------------------------12------------------------------|
 |-(12)---------------------------------------------10------------------10----------|
 |-(10)--------------0----0----0----0-----0----0--------------0----0-----8----------|
 |----------------------------------------------------------------------------------|
 |-----5------| |--------5--------| |--------5--------| |--------5--------|

S S S S S S S S S S S S S S S S S S S S
 
 |--19--15----------19-15----------------19-15----------------19-15----------------|
 |---------17-15-17---------17---15---17---------17---15---17---------17---15---17-|
 |---------------------------------------------------------------------------------|
 |---------------------------------------------------------------------------------|
 |---------------------------------------------------------------------------------|
 |---------------------------------------------------------------------------------|

|
| Gtr V
| W
 
 |---------------------------------------------------------------------------------|
 |---------------------------------------------------------------------------------|
 |---------------------------------------------------------------------------------|
 |---------------------------------------------------------------------------------|
 |---------------------------------------------------------------------------------|
 |---------------------------------------------------------------------------------|

|
| Gtrs I, II
 
 | PM-------------------------------------------------------|

| +Q S S S S S S S S S S S S
 
 |---------------------------------------------------------------------------------|
 |---------------------------------------------------------------------------------|
 |---------------------------------------------------------------------------------|
 |-(10)----------------------------------------------------------------------------|
 |--(8)--------------0----0----0----0-----0----0----0----0-----0----0----0----0----|
 |---------------------------------------------------------------------------------|

[C/E] E +Q [E5] E Q. +E
 
 |--------------------------------------||
 |-15b17-(15)pb17--15-15b17---(15)pb17--||
 |--------------------------------------||
 |--------------------------------------||
 |--------------------------------------||
 |--------------------------------------||

|
| E +Q E Q. +E
 
 |--------------------------------------||
 |--------------------------------------||
 |-16b17-(16)pb17--16-16b17---(16)pb17--||
 |--------------------------------------||
 |--------------------------------------||
 |--------------------------------------||

|
| Q. E H
 
 |--------------------------------------||
 |--------------------------------------||
 |--------------------------------------||
 |-10---------------9--9----------------||
 |--7---------------7--7----------------||
 |--------------------------------------||

Re-Intro
N.C.(E5) N.C.
Gtr III
W +Q H.
 
 |----------------------------------|--------------------------------------|
 |-15-------------------------------|-(15)\--------------------------------|
 |-16-------------------------------|-(16)\--------------------------------|
 |----------------------------------|--------------------------------------|
 |----------------------------------|--------------------------------------|
 |----------------------------------|--------------------------------------|

| W +Q H.
|
| Gtrs I, II
 
 | PM----| PM----| PM-----| PM----|

| S S S S S S S S S S S S S S S S S S S S S S S S S S S S S S S S
 
 |-----------

Important: The song above is NOT stored on the Chordie server. The original song is hosted at www.guitaretab.com. Chordie works as a search engine and provides on-the-fly formatting. Chordie does not index songs against artists'/composers' will. To remove this song please click here.

Text color:
Chord color:
Chord grids: 
Font size:    
Page size: 

A/C# A5 B B5 C/E C5 D5 E E5 F#5 F5 G5
Rate #1 of 2 versions

Jango Player

Login - add to songbook

SHARE PAGE  




You need to log in to post comments