Guitar Tabs, Chords and Lyrics
Server problems seems to be fixed. Chordie has been experiencing problems with songs disappearing. These issues now seems to be fixed, but still verifying the fix. If you find anything strange, please email admin@chordie.com.


Again  Archive

Again - Archive
Dm : 000321
Dm2 : 000320
Bb2 : X1x211
F : 1xx211
Am : x0x210
[Dm2] [Dm] [Dm2] [Dm] [Bb2] [Bb2]  
[Dm2] [Dm] [Dm2] [Dm] [Bb2] [Bb2]  
[Dm2]You're tearing [Dm]me apart[Dm2] [Dm] [Bb2] [Bb2]
[Dm2]Crushing [Dm]me inside[Dm2] [Dm] [Bb2] [Bb2]
[Dm2]You used to l[Dm]ift me up[Dm2] [Dm] [Bb2] [Bb2]
Now you get me [Dm2]down[Dm] [Dm2] [Dm] [Bb2] [Bb2]
If [F]I
Was to walk away[Dm2] [Dm] [Dm2] [Dm]
From y[Am]ou my love
Could I l[Dm2]augh again ?[Dm] [Dm2] [Dm]
If I
Walk away from you
And leave my love
Could I laugh again ?
Again, again...
You're killing me again
Am I still in your head ?
You used to light me up
Now you shut me down
If I
Was to walk away
>From you my love
Could I laugh again ?
If I
Walk away from you
And leave my love
Could I laugh again ?
I'm losing you again
Like eating me inside
I used to lift you up
Now I get you down
Without your love
You're tearing me apart
With you close by
You're crushing me inside
Without your love
You're tearing me apart
Without your love
I'm dazed in madness
Can't lose this sadness
I can't lose this sadness
Can't lose this sadness
You're tearing me apart
Crushing me inside
Without your love
(you used to lift me up)
You're crushing me inside
(now you get me down)
With you close by
I'm dazed in madness
Can't lose this sadness
It's riping me apart
It's tearing me apart
It's tearing me apart
I don't know why
It's riping me apart
It's tearing me apart
It's tearing me apart
I don't know why
I don't know why
I don't know why
I don't know why
Without your love
Without your love
Without your love
Without your love
It's tearing me apart
gain - ARCHIVE
TablEdited by RankXerox
Accordage : E A D G B E Signature Rythmique: 4/4
___
1| (X4)| | | | | | |
 
 |----------------0-----------1---|------------0-------------------|
 |--------3-----------3-----------|----3---------------3-----------|
 |----2-------2-----------2-------|--------2---------------2-------|
 |0-------------------------------|--------------------------------|
 |--------------------------------|--------------------------------|
 |--------------------------------|--------------------------------|

| | | | | | | |
 
 |----------------0-----------1---|------------0-------------------|
 |--------3-----------3-----------|----3---------------3-----------|
 |----2-------2-----------2-------|--------2---------------2-------|
 |0-------------------------------|--------------------------------|
 |--------------------------------|--------------------------------|
 |--------------------------------|--------------------------------|

| | | | | | | |
 
 |----------------1-----------1---|------------1-------------------|
 |--------1-----------1-----------|----1---------------1-----------|
 |----3-------3-----------3-------|--------3---------------3-------|
 |--------------------------------|--------------------------------|
 |1-------------------------------|--------------------------------|
 |--------------------------------|--------------------------------|

| | | | | | | |
 
 |----------------1-----------1---|------------1-------------------|
 |--------1-----------1-----------|----1---------------1-----------|
 |----3-------3-----------3-------|--------3---------------3-------|
 |--------------------------------|--------------------------------|
 |1-------------------------------|--------------------------------|
 |--------------------------------|--------------------------------|

___
5| | | | | | | |
 
 |----------------1-----------1---|------------1-------------------|
 |--------1-----------1-----------|----1---------------1-----------|
 |----2-------2-----------2-------|--------2---------------2-------|
 |--------------------------------|--------------------------------|
 |--------------------------------|--------------------------------|
 |1-------------------------------|--------------------------------|

| | | | | | | |
 
 |----------------1-----------1---|------------1-------------------|
 |--------1-----------1-----------|----1---------------1-----------|
 |----2-------2-----------2-------|--------2---------------2-------|
 |--------------------------------|--------------------------------|
 |--------------------------------|--------------------------------|
 |1-------------------------------|--------------------------------|

| | | | | | | |
 
 |----------------0-----------1---|------------0-------------------|
 |--------3-----------3-----------|----3---------------3-----------|
 |----2-------2-----------2-------|--------2---------------2-------|
 |0-------------------------------|--------------------------------|
 |--------------------------------|--------------------------------|
 |--------------------------------|--------------------------------|

| | | | | | | |
 
 |----------------0-----------0---|------------0-------------------|
 |--------1-----------1-----------|----1---------------1-----------|
 |----2-------2-----------2-------|--------2---------------2-------|
 |--------------------------------|--------------------------------|
 |0-------------------------------|--------------------------------|
 |--------------------------------|--------------------------------|

| | | | | | | |
 
 |----------------0-----------0---|------------0-------------------|
 |--------1-----------1-----------|----1---------------1-----------|
 |----2-------2-----------2-------|--------2---------------2-------|
 |--------------------------------|--------------------------------|
 |0-------------------------------|--------------------------------|
 |--------------------------------|--------------------------------|

| | | | | | | |
 
 |----------------0-----------1---|------------0-------------------|
 |--------3-----------3-----------|----3---------------3-----------|
 |----2-------2-----------2-------|--------2---------------2-------|
 |0-------------------------------|--------------------------------|
 |--------------------------------|--------------------------------|
 |--------------------------------|--------------------------------|

| | | | | | | |
 
 |----------------0-----------1---|------------0-------------------||
 |--------3-----------3-----------|----3---------------3-----------||
 |----2-------2-----------2-------|--------2---------------2-------||
 |0-------------------------------|--------------------------------||
 |--------------------------------|--------------------------------||
 |--------------------------------|--------------------------------||

bien respecter le rythme... RX

Important: The song above is NOT stored on the Chordie server. The original song is hosted at www.guitaretab.com. Chordie works as a search engine and provides on-the-fly formatting. Chordie does not index songs against artists'/composers' will. To remove this song please click here.

Text color:
Chord color:
Chord grids: 
Font size:    
Page size: 

Am Bb2 Dm F
Rate #1 of 2 versions

Jango Player

Login - add to songbook

SHARE PAGE  




You need to log in to post comments