Guitar Tabs, Chords and Lyrics
Server problems seems to be fixed. Chordie has been experiencing problems with songs disappearing. These issues now seems to be fixed, but still verifying the fix. If you find anything strange, please email admin@chordie.com.


Suck It and See  Arctic Monkeys

"Suck It And See" by the Arctic Monkeys
Tabbed by: Ariel ak
This is my first tab on this website but I Guarantee it's 100% correct! so enjoy
Verse
 
 ------

Your [E]love is like a studded leather [C#m]headlock
Your [F#m]kiss it could put creases in the [B]rain
You're [E]rarer than a can of dandelion and [C#m]burdock
And those [F#m]other girls are just [B]post mix lemo[E]nade[E]
Chorus
 
 ------

[E]Suck it and see
You never[A] kno[B]w
[E]Sit next to me
Before I[A] go[B]
[F#m]Jigsaw women with [B]horror movie [C#m]shoes
Be [F#m]cruel to me, coz [A]I'm a [B]fool for [E]you[E]
Verse
[-----]  
I poured my aching heart into a pop song
I couldn't get the hang of poetry
That's not a skirt girl, that's a sawn off shotgun
And I can only hope, you've got it aimed at me
Chorus
 
 ------

[E]Suck it and see
You never [A]know[B]
[E]Sit next to me
Before I [A]go[B]
[F#m]Jigsaw women with [B]horror movie [C#m]shoes
Be [F#m]cruel to me, coz [A]I'm a [B]fool for
C Part
 
 ------

[C#m] [B] [C#m] [B]  
[A] Blue
[F#m]Moon girls from once up[C#m]on a Shangri-La
[G#m]How I often [C#m]wonder where you are[B]
[A] You
[F#m]have got that face that just says
[C#m]"Baby, I was made to break your [B]heart[A]"
Interlude
 
 ---------

E A X4
 
 e-------|------------|---------|-----------|-------|-----------|
 B-5-----|------------|---------|-----------|-------|-----------|
 G-----4-|2---2-2-4-2-|2-1----1-|2--2-2-4-2-|1----1-|2--2-2-4-2-|
 D-------|------------|---------|-----------|-------|-----------|
 A-------|------------|---------|-----------|-------|-----------|
 E-------|------------|---------|-----------|-------|-----------|
 e--------|------------|----------|
 B--------|------------|----------|
 G-2------|------------|----------|
 D---6---6\4---4-4-6-4-|2---------|
 A--------|------------|----------|
 E--------|------------|----------|

Chorus
 
 ------

[E]Suck it [A]and see
You never[E] kno[A]w
[E]Sit next [A]to me
Before I[E] go[A]
[E] go[A], [E] go[A], [E] go[A], [E] go[A]
[E]Jigsaw women with [A]horror movie [E]shoes[A]
Be [F#m]cruel to me, coz [A]I'm a [B]fool for [E]you

Important: The song above is NOT stored on the Chordie server. The original song is hosted at www.guitaretab.com. Chordie works as a search engine and provides on-the-fly formatting. Chordie does not index songs against artists'/composers' will. To remove this song please click here.

Text color:
Chord color:
Chord grids: 
Font size:    
Page size: 

A B C#m E F#m G#m
Rate #2 of 9 versions

Login - add to songbook

SHARE PAGE  



You need to log in to post comments