Guitar Tabs, Chords and Lyrics
Server problems seems to be fixed. Chordie has been experiencing problems with songs disappearing. These issues now seems to be fixed, but still verifying the fix. If you find anything strange, please email admin@chordie.com.


A Certain Romance  Arctic Monkeys

 
 -------------------------------------------------------------------------------

A Certain Romance (Acoustic) - Arctic Monkeys
 
 -------------------------------------------------------------------------------

Tabbed by:Freddie Macauley
E-mail: fmacualey2@gmail.com
Tuning: Standard
This is tabbed to sound similar to this version with 2 guitars, and not for 1
guitar like the other tab http://www.youtube.com/watch?v=YwsHoKY8DHo
Guitar 1:
Intro:
 
 e|-11-11--11-11-11-14-14-11-11-11-11-16-16-11-16/18-18-18-18-16--|
 B|-12-12---------------------------------------------------------|
 G|-11------------------------------------------------------------|
 D|---------------------------------------------------------------|
 A|---------------------------------------------------------------|
 E|---------------------------------------------------------------|
 e|---------------------------------------------------------------|
 B|-12-12-12-12-12-14-12----14-12---12-12-12-12-------------------|
 G|-13-13----------------13------13-13----------13-13-13-13-------|
 D|---------------------------------------------------------------|
 A|---------------------------------------------------------------|
 E|---------------------------------------------------------------|

All of this x2
Verse 1:
Played and quickly muted, listen to the song you'll get it, there's also the occasional
up,down,up, normally before movement between chords
[B] [E]  
 
 e|-11----7---|
 B|-12----9---|
 G|-11----9---|
 D|-----------|
 A|-----------|
 E|-----------|

[B]Well oh they might wear classic Reeboks
[B]Or knackered Converse
[B]Or tracky bottoms tucked in socks
[E]But all of that's what the point is not
The point's that there ain't no [E]romance around there
[B]And there's the truth that they can't see
[B]They'd probably like to throw a punch at me
[B]And if [E]you could only see them, then you would agree
[E]Agree that there ain't no romance around there
Chorus:
 
 e|-4--4-2-------4-2-----4-2----------------------------------------------|
 B|--------4--2------4-------4------------------4-4-2-2-------------------|
 G|--------------------4-------4--4-4-4-1-1-1-1---------4-1-1-1-1p0-0-0-0-|
 D|-----------------------------------------------------------------------|
 A|-----------------------------------------------------------------------|
 E|-----------------------------------------------------------------------|

Verse 2:
The same as Verse 1
[B]And over there there's broken bones
[B]There's only music, so that there's new ringtones
[E] And it don't take no Sherlock Holmes
To see it's a little [E]different around here
[B]Don't get me wrong, oh there's boys in bands
[B]And kids who like to scrap with pool cues in their hands
[E]And just cause he's had a coupla cans
He thinks it's alright to [E]act like a dickhead
Chorus:
The same as the previous one but played twice.
 
 e|-4--4-2-------4-2-----4-2----------------------------------------------|
 B|--------4--2------4-------4------------------4-4-2-2-------------------|
 G|--------------------4-------4--4-4-4-1-1-1-1---------4-1-1-1-1p0-0-0-0-|
 D|-----------------------------------------------------------------------|
 A|-----------------------------------------------------------------------|
 E|-----------------------------------------------------------------------|
 e|-4--4-2-------4-2-----4-2----------------------------------------------|
 B|--------4--2------4-------4------------------4-4-2-2-------------------|
 G|--------------------4-------4--4-4-4-1-1-1-1---------4-1-1-1-1p0-0-0-0-|
 D|-----------------------------------------------------------------------|
 A|-----------------------------------------------------------------------|
 E|-----------------------------------------------------------------------|

Transition to verse 3:
 
 e|-11-11--11-11-11-14-14-11-11-11-11-16-16-11-16/18-18-18-18-16--|
 B|-12-12---------------------------------------------------------|
 G|-11------------------------------------------------------------|
 D|---------------------------------------------------------------|
 A|---------------------------------------------------------------|
 E|---------------------------------------------------------------|
 e|---------------------------------------------------------------|
 B|-12-12-12-12-12-14-12----14-12---12-12-12-12-------------------|
 G|-13-13----------------13------13-13----------13-13-13-13-------|
 D|---------------------------------------------------------------|
 A|---------------------------------------------------------------|
 E|---------------------------------------------------------------|

Verse 3:
The same as the other two verses
[B]Well over there there's friends of mine
[B]What can I say, I've known 'em for a long long time
[E]And yeah they might overstep the line
But I just cannot get a[E]ngry in the same[B] way
[B]Not in the same way
Not in the same [E]way
Oh no, oh no [E]no
Solo:
 
 e|-------------------------------|
 B|---------------------2---------|
 G|-4--4--4-4-4-4-4-3-4---4--3----|
 D|-------------------------------| x2
 A|-------------------------------|
 E|-------------------------------|
 e|------------------------------------------------|
 B|------------4-4--2-2----------------------------|
 G|-1--1-1-1-1----------4-1--1-1-1-1p0-0-0--0-0-0--|
 D|------------------------------------------------|
 A|------------------------------------------------|
 E|------------------------------------------------|
 e|-------------------------------|
 B|---------------------2---------|
 G|-4--4--4-4-4-4-4-3-4---4--3----|
 D|-------------------------------| x2
 A|-------------------------------|
 E|-------------------------------|
 e|------------------------------------------------|
 B|------------4-4--2-2----------------------------|
 G|-1--1-1-1-1----------4-1--1-1-1-1p0-0-0--0-0-0--|
 D|------------------------------------------------|
 A|------------------------------------------------|
 E|------------------------------------------------|
 e|-44--22-------4-4-22-------44-22-------4-4-22--------|
 B|--------44-44--------44-44-------44-44--------44-44--|
 G|-----------------------------------------------------|
 D|-----------------------------------------------------| x2
 A|-----------------------------------------------------|
 E|-----------------------------------------------------|
 e|-44--22------2-4---2-4-2-4b-2---2-4-2-4b4b4b4b4br----| The bent note is
 B|--------44-4-----4------------4----------------------| held up then strummed
 G|-----------------------------------------------------| 4 times, then
 D|-----------------------------------------------------| released on the 4th
 A|-----------------------------------------------------|
 E|-----------------------------------------------------|
 e|-44--22-------4-4-22-------44-22----------22---------|
 B|--------44-44--------44-44-------44-22-44----44-22---|
 G|-----------------------------------------------------|
 D|-----------------------------------------------------|
 A|-----------------------------------------------------|
 E|-----------------------------------------------------|

End on
e|-7-|
B|-7-|
G|-8-|
D|-9-|
A|-9-|
E|-7-|
Guitar 2 (chords):
[B] [E] [Em] [Abm] [F#] [C#m]  
 
 e|-2-0-0--4---2--4---|
 B|-4-0-0--4---2--5---|
 G|-4-1-0--4---3--6---|
 D|-4-2-2--6---4--6---|
 A|-2-2-2--6---4--4---|
 E|---0-0--4---2------|

Verse 1
[B]Well oh they might wear classic Reeboks
[B]Or knackered Converse
[B]Or tracky bottoms tucked in socks
[E]But all of that's what the point is not
The point's that there ain't no [Em]romance around there
[B]And there's the truth that they can't see
[B]They'd probably like to throw a punch at me
[B]And if [E]you could only see them, then you would agree
[Em]Agree that there ain't no romance around there
Chorus
You [Abm]know, oh it's a [F#]funny thing you know
We'll [E]tell 'em if you like
We'll [Em]tell 'em all tonight
They'll never [B]listen
Cause their [Abm]minds are made up
And [C#m]course it's all okay to [F#]carry on that way[B]
Verse 2
[B]And over there there's broken bones
[B]There's only music, so that there's new ringtones
[E] And it don't take no Sherlock Holmes
To see it's a little [Em]different around here
[B]Don't get me wrong, oh there's boys in bands
[B]And kids who like to scrap with pool cues in their hands
[E]And just cause he's had a coupla cans
He thinks it's alright to [Em]act like a dickhead
Chorus
You [Abm]know, oh it's a [F#]funny thing you know
We'll [E]tell 'em if you like
We'll [Em]tell 'em all tonight
They'll never [B]listen
Cause their [Abm]minds are made up
And [C#m]course it's all okay to [F#]carry on that way
But I s[Abm]aid no
Oh [F#]no!
Oh you [E]won't get me to [Em]go!
[B]Not anywhe[Abm]re, not anywhere
I [C#m]won't go[F#]
Oh no no![B]
verse
[B]Well over there there's friends of mine
[B]What can I say, I've known 'em for a long long time
[E]And yeah they might overstep the line
But I just cannot get a[Em]ngry in the same [B]way
[B]Not in the same way
Not in the same [E]way
Oh no, oh no [Em]no
Solo
Just repeat this B chord:
e|-7-|
B|-7-|
G|-8-|
D|-9-|
A|-9-|
E|-7-|
Listen to the link at the top for the rhythm as there's a few small changes etc...
Then end on the E7 B chord as above

Important: The song above is NOT stored on the Chordie server. The original song is hosted at www.guitaretab.com. Chordie works as a search engine and provides on-the-fly formatting. Chordie does not index songs against artists'/composers' will. To remove this song please click here.

Text color:
Chord color:
Chord grids: 
Font size:    
Page size: 

Abm B C#m E Em F#
Rate #1 of 7 versions

Login - add to songbook

SHARE PAGE  




You need to log in to post comments