Guitar Tabs, Chords and Lyrics
Major upgrade!! After one year development the new version of Chordie is now online! Please give feedback.


Hold Your Head Up  Argent

Song: Hold your head up
Tabbed by: DJ
2nd June 2013
Tuning: Standard
********************************************************************************
[Dsus4]  
 
 e|---3-------------|-----------------|
 B|---3-------------|-----------------|
 G|---2-------------|-----------------|
 D|---0-------------|-----------------|
 A|-----------------|-----------------|
 E|-----------------|-----------------|

[Dsus2]  
 
 e|--0--0--0--------|--0--0--0--------|--0--0--0--------|--0--0--0--------|
 B|--3--3--3--------|--3--3--3--------|--3--3--3--------|--3--3--3--------|
 G|--2--2--2--------|--2--2--2--------|--2--2--2--------|--2--2--2--------|
 D|--0--0--0--------|--0--0--0--------|--0--0--0--------|--0--0--0--------|
 A|-----------0--3--|-----------0--3--|-----------0--3--|-----------0--3--|
 E|-----------------|-----------------|-----------------|-----------------|

(Main riff)
Dsus4 D D9sus4 D7sus4 Dsus4 D D9sus4 [cb]Cmaj9/D[/cb] D7sus2
 
 e|--3----3--2------|--3----3--3------|--3---3--0----3------7---|----5-----| (Twice)
 B|--3----3--3------|--5----5--3------|--3---3--3----3------5---|----5-----|
 G|--2----2--2------|--5----5--5------|--2---2--2----5------5---|----5-----|
 D|--0----0--0------|--0----0--0------|--0---0--0----0------0---|----0-----|
 A|-----------------|-----------------|-------------------------|----------|
 E|-----------------|-----------------|-------------------------|----------|

Dsus4 D D9sus4 D7sus4 Dsus4 D D9sus4 [cb]Cmaj9/D[/cb] D7sus2
 
 And if it's bad, don't let it get you down, you--- can make--- it,

Dsus4 D D9sus4 D7sus4 Dsus4 D D9sus4 [cb]Cmaj9/D[/cb] D7sus2
And if it hurts, don't let them see you cry, you--- can take-- it!
[Dsus2] Hold your head up,[F6(add4)] woman! [Dsus2]Hold your head up, [F6(add4)]woman!
[Dsus2] Hold your head up, [F6(add4)]woman! [Esus4]Hold your head h[E]igh-----!
[Dsus2]  
 
 e|--0--0--0--------|--0--0--0--------|--0--0--0--------|--0--0--0--------|
 B|--3--3--3--------|--3--3--3--------|--3--3--3--------|--3--3--3--------|
 G|--2--2--2--------|--2--2--2--------|--2--2--2--------|--2--2--2--------|
 D|--0--0--0--------|--0--0--0--------|--0--0--0--------|--0--0--0--------|
 A|-----------0--3--|-----------0--3--|-----------0--3--|-----------0--3--|
 E|-----------------|-----------------|-----------------|-----------------|

Dsus4 D D9sus4 D7sus4 Dsus4 D D9sus4 [cb]Cmaj9/D[/cb] D7sus2
And if they stare, just let them burn their eyes on you mov - ing,
Dsus4 D D9sus4 D7sus4 Dsus4 D D9sus4 [cb]Cmaj9/D[/cb] D7sus2
And if they shout, don't let it change a thing that you're do - ing!
[Dsus2] Hold your head up,[F6(add4)] woman! [Dsus2]Hold your head up, [F6(add4)]woman!
[Dsus2] Hold your head up, [F6(add4)]woman! [Esus4]Hold your head h[E]igh-----!
[Dsus2]  
 
 e|--0--0--0--------|--0--0--0--------|--0--0--0--------|--0--0--0--------|
 B|--3--3--3--------|--3--3--3--------|--3--3--3--------|--3--3--3--------|
 G|--2--2--2--------|--2--2--2--------|--2--2--2--------|--2--2--2--------|
 D|--0--0--0--------|--0--0--0--------|--0--0--0--------|--0--0--0--------|
 A|-----------0--3--|-----------0--3--|-----------0--3--|-----------0--3--|
 E|-----------------|-----------------|-----------------|-----------------|

[Dsus2]Hold your head up! Hold your head up!
 
 e|--0---------0--0---------|--0----------0--0---------| (Twice)
 B|--3---------3--3---------|--3----------3--3---------|
 G|--2---------2--2---------|--2----------2--2---------|
 D|--0---------0--0---------|--0----------0--0---------|
 A|-------------------0--3--|--------------------0--3--|
 E|-------------------------|--------------------------|

D C/D Bb/D [cb]Ab/D[/cb]
Hold your head up! Hold your head up! Hold your head up! Hold your head up!
Ho[G]ld your head up! [E7]Hold your head up! [Cadd9]Hold your head up! [Amaj4]Hold your head up!
[F6(add4)]Hold your head up!
*Dsus2 *F6(add4) *Dsus2 *F6(add4)
Hold your head up, woman! Hold your head up, woman!
*Dsus2 *F6(add4) Esus4 E
Hold your head up, woman! Hold your head high-----!
Dsus4 D D9sus4 D7sus4 Dsus4 D D9sus4 [cb]Cmaj9/D[/cb] D7sus2
And if they stare, just let them burn their eyes on you mov - ing,
Dsus4 D D9sus4 D7sus4 Dsus4 D D9sus4 [cb]Cmaj9/D[/cb] D7sus2
And if they shout, don't let it change a thing that you're do - ing!
*Dsus2 *F6(add4) *Dsus2 *F6(add4)
Hold your head up, woman! Hold your head up, woman!
*Dsus2 *F6(add4) *Dsus2 *F6(add4)
Hold your head up, woman! Hold your head up, woman!
(Suggestion for coda)
|[Esus4] /__/ /__[E]/ / / ||
^ ^ ^ ^
******************************************************************************************
*Just for variety, I use a different inversion of the chords for the latter choruses.
Either set of shapes work, so use what you feel comfortable playing.
Dsus4 = xx0233 F6(add4)= 100311 Bb/D = xx0331 *Dsus2 = 557755
Dsus2 = xx0230 Esus4 = 022200 [cb]Ab/D[/cb] = xx0554 *F6(add4)= xx0566
D9sus4 = xx0553 E = 022100 G = 320033
D7sus4 = xx0533 D = xx0775 E7 = 020100
[cb]Cmaj9/D[/cb] = xx0557 C/D = xx0553 Cadd9 = x32010
D7sus2 = xx0555 Amaj4 = x00220

Important: The song above is NOT stored on the Chordie server. The original song is hosted at www.guitaretab.com. Chordie works as a search engine and provides on-the-fly formatting. Chordie does not index songs against artists'/composers' will. To remove this song please click here.

Text color:
Chord color:
Chord grids: 
Font size:    
Page size: 

Cadd9 Dsus2 Dsus4 E E7 Esus4 G
Rate #1 of 1 versions

Login - add to songbook

SHARE PAGE  




You need to log in to post comments