Guitar Tabs, Chords and Lyrics
Major upgrade!! After one year development the new version of Chordie is now online! Please give feedback.


They√Ę??re on to Me   Ari Hest

 
 e--0--0-------|----0--0-------|---0--0-------------0---|
 a--0--0-------|----0--0-------|---0--0-------------0---|
 g--2--1--x4---|----2--1--x2---|---2--1--x2---or----6---|
 d--2--2-------|----2--2-------|---0--0-------------7---|
 a--0--0-------|----2--2-------|--------------------5---|
 E-------------|----0--0-------|------------------------|

 


 


 [(1)]  


 

 
 e--0--0-------|----0--0-------|---0--0---0--0------|
 a--0--0-------|----0--0-------|---0--0---0--0------|
 g--2--1--x4---|----2--1--x2---|---2--1---6--7------|
 d--2--2-------|----2--2-------|---0--0---0--0------|
 a--0--0-------|----2--2-------|--------------------|
 E-------------|----0--0-------|--------------------|

 


 


 [(2)]  


 

 
 e---0------0-----0----0------| e---0----0---0---0---|
 a---0------0-----0----0------| a---0----0---0---0---|
 g---8-----11-----7----6------| or g---8----1---7---6---|
 d---9-----12-----6----6------| d---9----3---6---6---|
 a---9-----12-----7----7------| a---9----3---7---7---|
 E---7-----10-----0----0------| E---7----1---0---0---|

 


 


 [(3)]  


 

 
 e---0----0----0----0---0---0---2----------|
 a---0----0----0----0---0---0---0----------|
 g---2----9---11---10---2---1---0----10----|
 d---2----7---12---11---2---2---0-----0----|
 a---0----x--(12)--x----0---2---x-----x----|
 E--------9---10---10-------0---3----10----|

 


 


 Interlude (I believe is the same as part 2)


 


 

 
 e---0---0---0----|
 a---0---0---0----|
 g---8--11---7----|
 d---9--12---6----|
 a---9--12---7----|
 E---7--10---0----|


Important: The song above is NOT stored on the Chordie server. The original song is hosted at www.guitaretab.com. Chordie works as a search engine and provides on-the-fly formatting. Chordie does not index songs against artists'/composers' will. To remove this song please click here.

This song is displayed as text-only. Transposing and tuning is only available for chordpro-songs.
Rate #1 of 1 versions

Login - add to songbook

SHARE PAGE  



You need to log in to post comments