Guitar Tabs, Chords and Lyrics
Server problems seems to be fixed. Chordie has been experiencing problems with songs disappearing. These issues now seems to be fixed, but still verifying the fix. If you find anything strange, please email admin@chordie.com.


Disappear  Army of Anyone

DISAPPEAR
As recorded by Bullet For My Valentine
(From the 2008 Album SCREAM AIM FIRE)
Transcribed by Shane Mackay
NOTE: This is copied from my powertab version of the song...
I'm not someone trying to rip off the ptab.
Gtr I (D G C F A D) - 'Lead - Padge'
Gtr II (D G C F A D) - 'Rhythm - Matt Tuck'
Gtr III (D G C F A D) - 'Chorus Octaves/Solo'
Gtr IV (E A D G B E) - 'Pick Scrape'
Intro
Q=196
[4/4] Gtr I
PM| PM PM|
H Q. E +E S S E E E E E S S E E E E E E E E
 
 |-------------||------------------------|-----------------|
 |-------------||o-----------------------|-----------------|
 |-------------||------------------------|-----------------|
 |-----------2-||--(2)-----5---5p4-------|-4---4h5-------2-|
 |-----------2-||o-(2)-------------------|-----------2---2-|
 |-----------0-||--(0)-0-0---0-----0-0-0-|---0-----0-0---0-|

|
| Gtr II
| PM| PM PM|
| H Q. E +E S S E E E E E S S E E E E E E E E
 
 |-------------||------------------------|-----------------|
 |-------------||o-----------------------|-----------------|
 |-------------||----------4---4p2-------|-2---2h4---------|
 |-----------2-||--(2)-------------------|---------------2-|
 |-----------2-||o-(2)-------------------|-----------2---2-|
 |-----------0-||--(0)-0-0---0-----0-0-0-|---0-----0-0---0-|

PM|
+E S S E E E E E S S E E E E E E E E
 
 |-----------------------|------------------|
 |-----------------------|------------------|
 |-----------------------|-----------7---5--|
 |-(2)-----5---5p4-------|-4---4h5---7---5--|
 |-(2)-------------------|-----------5---3--|
 |-(0)-0-0---0-----0-0-0-|---0-----0---0----|

|
| PM|
| +E S S E E E E E S S E E E E E E E E
 
 |-----------------------|------------------|
 |-----------------------|------------------|
 |---------4---4p2-------|-2---2h4----------|
 |-(2)-------------------|-----------7---5--|
 |-(2)-------------------|-----------5---3--|
 |-(0)-0-0---0-----0-0-0-|---0-----0---0----|

+W +H. E E +H. E E +H. E E
 
 |------------|--------------|--------------|---------------||
 |------------|--------------|--------------|--------------o||
 |-(5)--------|-(5)----------|------------7-|-(7)-----------||
 |-(5)--------|-(5)--------5-|-(5)--------7-|-(7)--------2--||
 |-(3)--------|-(3)------x-5-|-(5)------x-5-|-(5)------x-2-o||
 |------------|----------x-3-|-(3)------x---|----------x-0--||

|
| +W +H. E E +H. E E +H. E E
 
 |------------|--------------|--------------|---------------||
 |------------|--------------|--------------|--------------o||
 |------------|--------------|--------------|---------------||
 |-(5)--------|-(5)----------|------------7-|-(7)--------2--||
 |-(3)--------|-(3)------x-5-|-(5)------x-5-|-(5)------x-2-o||
 |------------|----------x-3-|-(3)------x---|----------x-0--||

Pre-Verse
$
+H. E E +Q E E +Q E E +W +H +E E E E
 
 |---------------|--------------------|------------|------------------|
 |---------------|--------------------|------------|------------------|
 |---------------|--------------------|------------|------------------|
 |-(2)---------9-|--(9)----7-(7)----5-|-(5)--------|-(5)----(5)-----2-|
 |-(2)--------10-|-(10)----9-(9)----3-|-(3)--------|-(3)----(3)-----2-|
 |-(0)------0----|-------0--------0---|------------|------------0-0-0-|

|
| +W +W +W +H +E E E E
 
 |---------------|--------------------|------------|------------------|
 |---------------|--------------------|------------|------------------|
 |---------------|--------------------|------------|------------------|
 |-(2)-----------|--(2)---------------|-(2)--------|-(2)----(2)-----2-|
 |-(2)-----------|--(2)---------------|-(2)--------|-(2)----(2)-----2-|
 |-(0)-----------|--(0)---------------|-(0)--------|-(0)----(0)-0-0-0-|

+H. E E +Q E E +Q E E
 
 |---------------|--------------------|
 |---------------|--------------------|
 |---------------|--------------------|
 |-(2)---------9-|--(9)----7-(7)----5-|
 |-(2)--------10-|-(10)----9-(9)----3-|
 |-(0)------0----|-------0--------0---|

|
| +W +W
 
 |---------------|--------------------|
 |---------------|--------------------|
 |---------------|--------------------|
 |-(2)-----------|--(2)---------------|
 |-(2)-----------|--(2)---------------|
 |-(0)-----------|--(0)---------------|

+W E +E E E +E E Q
 
 |------------|------------------------------|
 |------------|-12b13r(12)-10-12-(12)-10-----|
 |------------|--------------------------12--|
 |-(5)--------|------------------------------|
 |-(3)--------|------------------------------|
 |------------|------------------------------|

|
| +W E +E E E +E E Q
 
 |------------|-10b12r(10)--8-10-(10)--8-----|
 |------------|--------------------------12--|
 |------------|------------------------------|
 |-(2)--------|------------------------------|
 |-(2)--------|------------------------------|
 |-(0)--------|------------------------------|

Verse
H. E E +Q E E +Q E E +W +H +E E E E
 
 ||---------------|--------------------|------------|-------------------|
 ||o--------------|--------------------|------------|-------------------|
 ||---------------|--------------------|------------|-------------------|
 ||--2----------9-|--(9)----7-(7)----5-|-(5)--------|-(5)----(5)-----2--|
 ||o-2---------10-|-(10)----9-(9)----3-|-(3)--------|-(3)----(3)-----2--|
 ||--0-------0----|-------0--------0---|------------|------------0-0-0--|

|
| H. E E +Q E E +Q E E +W +H +E E E E
 
 ||---------------|--------------------|------------|-------------------|
 ||o--------------|--------------------|------------|-------------------|
 ||---------------|--------------------|------------|-------------------|
 ||--2----------9-|--(9)----7-(7)----5-|-(5)--------|-(5)----(5)-----2--|
 ||o-2---------10-|-(10)----9-(9)----3-|-(3)--------|-(3)----(3)-----2--|
 ||--0-------0----|-------0--------0---|------------|------------0-0-0--|

+H. E E +Q E E +Q E E
 
 |---------------|--------------------|
 |---------------|--------------------|
 |---------------|--------------------|
 |-(2)---------9-|--(9)----7-(7)----5-|
 |-(2)--------10-|-(10)----9-(9)----3-|
 |-(0)------0----|-------0--------0---|

|
| +H. E E +Q E E +Q E E
 
 |---------------|--------------------|
 |---------------|--------------------|
 |---------------|--------------------|
 |-(2)---------9-|--(9)----7-(7)----5-|
 |-(2)--------10-|-(10)----9-(9)----3-|
 |-(0)------0----|-------0--------0---|

+W E +E E E +E E Q
 
 |------------|-------------------------------||
 |------------|-12b13r(12)-10-12-(12)-10-----o||
 |------------|--------------------------12---||
 |-(5)--------|-------------------------------||
 |-(3)--------|------------------------------o||
 |------------|-------------------------------||

|
| +W E +E E E +E E Q
 
 |------------|-10b12r(10)--8-10-(10)--8------||
 |------------|--------------------------12--o||
 |------------|-------------------------------||
 |-(5)--------|-------------------------------||
 |-(3)--------|------------------------------o||
 |------------|-------------------------------||

Pre-Chorus
W +H. +E E +E E E E E E E E E E E E E E E E
 
 |----------|----------------|-------------------|-----------------|
 |----------|----------------|-------------------|-----------------|
 |-7--------|-(7)------(7)---|-------------------|---------------7-|
 |-7--------|-(7)------(7)---|-------5---5p4-----|-4---4h5---5---7-|
 |-5--------|-(5)------(5)-3-|-(3)-3---3-----3-3-|---3-----3-3---5-|
 |----------|----------------|-------------------|-----------------|

|
| W +H. +E E +E E E E E E E E E E E E E E E E
 
 |----------|----------------|-------------------|-----------------|
 |----------|----------------|-------------------|-----------------|
 |-7--------|-(7)------(7)---|-------------------|---------------7-|
 |-7--------|-(7)------(7)---|-------2---2p0-----|-0---0h2---5---7-|
 |-5--------|-(5)------(5)-3-|-(3)-3---3-----3-3-|---3-----3-3---5-|
 |----------|----------------|-------------------|-----------------|

Gtrs I, II
+W E E +E E +E E E E +E Q E E E E E
 
 |------------|-----------------|---------------------|------------------|
 |------------|-----------------|---------------------|------------------|
 |-(7)--------|-x pick scrape x-|-----------------4-4-|-(4)-4------------|
 |-(7)--------|-x pick scrape x-|-5-5-(5)-5-(5)---4-4-|-(4)-4------------|
 |-(5)--------|-x pick scrape x-|-5-5-(5)-5-(5)---2-2-|-(2)-2----2-0---2-|
 |------------|-----------------|-3-3-(3)-3-(3)-0-----|--------0-----3-0-|

Chorus
Gtr I
PM| PM PM|
+E S S E E E E E S S E E E E E E E E
 
 ||------------------------|-----------------|
 ||o-----------------------|-----------------|
 ||------------------------|-----------------|
 ||----------5---5p4-------|-4---4h5-------2-|
 ||o-(2)-------------------|-----------2---2-|
 ||--(0)-0-0---0-----0-0-0-|---0-----0-0---0-|

|
| Gtr II
| PM| PM PM|
| +E S S E E E E E S S E E E E E E E E
 
 ||------------------------|-----------------|
 ||o-----------------------|-----------------|
 ||----------4---4p2-------|-2---2h4---------|
 ||------------------------|---------------2-|
 ||o-(2)-------------------|-----------2---2-|
 ||--(0)-0-0---0-----0-0-0-|---0-----0-0---0-|

|
| Gtr III
| W W
 
 ||------------------------|-----------------|
 ||o-----------------------|-----------------|
 ||------------------------|-----------------|
 ||------------------------|-----------------|
 ||o-----------------------|-----------------|
 ||------------------------|-----------------|

PM|
+E S S E E E E E S S E E E E E E E E
 
 |-----------------------|--------------------|
 |-----------------------|--------------------|
 |-----------------------|------------7----5--|
 |-(2)-----5---5p4-------|-4---4h5----7----5--|
 |-(2)-------------------|------------5----3--|
 |-(0)-0-0---0-----0-0-0-|---0-----0----0-----|

|
| PM|
| +E S S E E E E E S S E E E E E E E E
 
 |-----------------------|--------------------|
 |-----------------------|--------------------|
 |---------4---4p2-------|-2---2h4------------|
 |-(2)-------------------|------------7----5--|
 |-(2)-------------------|------------5----3--|
 |-(0)-0-0---0-----0-0-0-|---0-----0----0-----|

|
| W H Q. E
 
 |-----------------------|--------------------|
 |-----------------------|--------------------|
 |-----------------------|----------------17--|
 |-----------------------|-----------------x--|
 |-----------------------|----------------15--|
 |-----------------------|--------------------|

PM PM PM| PM PM PM
[+E] [E] [E] [E] [E] [E] [E] [E] [E] [E] [E] [E] [E] [E] [E] [E]  
 
 |---------------------------|-------------------------|
 |---------------------------|-------------------------|
 |---------------------------|-------------------------|
 |--(5)-----5-----5--4-------|--4-----4--5-----5-----7-|
 |--(3)--3-----3--------3--3-|-----3--------3--3--3--5-|
 |---------------------------|-------------------------|

|
| PM PM PM| PM PM PM
| +E E E E E E E E E E E E E E E E
 
 |---------------------------|-------------------------|
 |---------------------------|-------------------------|
 |---------------------------|-------------------------|
 |--(5)-----2-----2--0-------|--0-----0--2-----5-----7-|
 |--(3)--3-----3--------3--3-|-----3--------3--3--3--5-|
 |---------------------------|-------------------------|

|
| +E E E E E E E E E E E E E E E E
 
 |---------------------------|-------------------------|
 |---------------------------|-------------------------|
 |-(17)-17-17-17-17-17-17-17-|-17-17-17-17-17-17-17-16-|
 |--(x)--x--x--x--x--x--x--x-|--x--x--x--x--x--x--x--x-|
 |-(15)-15-15-15-15-15-15-15-|-15-15-15-15-15-15-15-14-|
 |---------------------------|-------------------------|

To Coda D.S. al Coda
PM PM PM| PM PM PM
[+E] [E] [E] [E] [E] [E] [E] [E] [E] [E] [E] [E] [E] [E] [E] [E]  
 
 |---------------------------|-------------------------||
 |---------------------------|------------------------o||
 |---------------------------|-------------------------||
 |--(7)--0--5--0--5--4--0--0-|--4--0--4--5--0--7----2--||
 |--(5)----------------------|-----------------5----2-o||
 |---------------------------|--------------------0-0--||

|
| PM PM PM| PM PM PM
| +E E E E E E E E E E E E E E E E
 
 |---------------------------|-------------------------||
 |---------------------------|------------------------o||
 |---------------------------|-------------------------||
 |--(7)--0--9--0--9--7--0--0-|--7--0--7--9--0--7----2--||
 |--(5)----------------------|-----------------5----2-o||
 |---------------------------|--------------------0-0--||

|
| +E E E E E E E E E E E E E E Q
 
 |---------------------------|-------------------------||
 |---------------------------|------------------------o||
 |-(16)-16-16-16-16-16-16-16-|-19-19-19-19-19-19-19----||
 |--(x)--x--x--x--x--x--x--x-|--x--x--x--x--x--x--x----||
 |-(14)-14-14-14-14-14-14-14-|-17-17-17-17-17-17-17---o||
 |---------------------------|-------------------------||

Bridge
&
PM PM PM PM| PM--|
[E] [E] [E] [E] [E] [E] [E] [E] [+E] [E] [E] [E] [E] [E] [E] [E] [E] [E] [E] [E] [E] [E] [E] [E]  
 
 |-----------------|-------------------|-------------------|
 |-----------------|-------------------|-------------------|
 |-----------------|-------------------|-------------------|
 |-4-0-4-5-0-7-----|-------4h5p4-------|--4h=5p4-----------|
 |-----------5---3-|-(3)-3-------5-3-3-|---------5-3-3-3-2-|
 |-------------0---|-------------------|-----------------0-|

|
| PM PM PM PM
| E E E E E E E E +W +H. E E
 
 |-----------------|-------------------|-------------------|
 |-----------------|-------------------|-------------------|
 |---------------5-|-(5)---------------|-(5)---------------|
 |-7-0-7-9-0-7---5-|-(5)---------------|-(5)-------------2-|
 |-----------5---3-|-(3)---------------|-(3)-------------2-|
 |-------------0---|-------------------|---------------0-0-|

PM PM| PM--|
[+E] [E] [E] [E] [E] [E] [E] [E] [E] [E] [E] [E] [E] [E] [E] [E]  
 
 |-------------------|-------------------|
 |-------------------|-------------------|
 |-------------------|-------------------|
 |-------4h5p4-------|--4h=5p4-----------|
 |-(2)---------5-----|---------5-------3-|
 |-(0)-0---------0-0-|-----------0-0-0---|

|
| +W +H. E E
 
 |-------------------|-------------------|
 |-------------------|-------------------|
 |-------------------|-----------------5-|
 |-(2)---------------|-(2)-------------5-|
 |-(2)---------------|-(2)-----------3-3-|
 |-(0)---------------|-(0)---------------|

PM| PM--|
[+E] [E] [E] [E] [E] [E] [E] [E] [E] [E] [E] [E] [E] [E] [E] [E]  
 
 |-------------------|-------------------|
 |-------------------|-------------------|
 |-------------------|-------------------|
 |-------4h5p4-------|--4h=5p4-----------|
 |-(3)-3-------5-3-3-|---------5-3-3-3-5-|
 |-------------------|-------------------|

|
| +W +H. E E
 
 |-------------------|-------------------|
 |-------------------|-------------------|
 |-(5)---------------|-(5)-------------7-|
 |-(5)---------------|-(5)-------------7-|
 |-(3)---------------|-(3)-----------5-5-|
 |-------------------|-------------------|

PM|
[+E] [E] [E] [E] [E] [E] [E] [E] [E] [E] [E] [E] [E] [E] [E] [E]  
 
 |-------------------|-------------------|
 |-------------------|-------------------|
 |-------------------|-------------------|
 |-------4h5p4-------|--7p=0h5p0h4p0h5-5-|
 |-(5)-5-------5-5-5-|-----------------3-|
 |-------------------|-------------------|

|
| +W +H. E E
 
 |-------------------|-------------------|
 |-------------------|-------------------|
 |-(7)---------------|-(7)-------------5-|
 |-(7)---------------|-(7)-------------5-|
 |-(5)---------------|-(5)-------------3-|
 |-------------------|-------------------|

PM| PM--|
[+E] [E] [E] [E] [E] [E] [E] [E] [E] [E] [E] [E] [E] [E] [E] [E]  
 
 |-------------------|-------------------|
 |-------------------|-------------------|
 |-------------------|-------------------|
 |-------4h5p4-------|--4h=5p4-----------|
 |-(3)-3-------5-3-3-|---------5-3-3-3-2-|
 |-------------------|-----------------0-|

|
| PM
| +W +H. E E
 
 |-------------------|-------------------|
 |-------------------|-------------------|
 |-(5)---------------|-(5)---------------|
 |-(5)---------------|-(5)-------------2-|
 |-(3)---------------|-(3)-------------2-|
 |-------------------|---------------0-0-|

PM PM| PM--|
[+E] [E] [E] [E] [E] [E] [E] [E] [E] [E] [E] [E] [E] [E] [E] [E]  
 
 |-------------------|-------------------|
 |-------------------|-------------------|
 |-------------------|-------------------|
 |-------4h5p4-------|--4h=5p4-----------|
 |-(2)---------5-----|---------5-------3-|
 |-(0)-0---------0-0-|-----------0-0-0---|

|
| +W +H. E E
 
 |-------------------|-------------------|
 |-------------------|-------------------|
 |-------------------|-----------------5-|
 |-(2)---------------|-(2)-------------5-|
 |-(2)---------------|-(2)-----------3-3-|
 |-(0)---------------|-(0)---------------|

PM| PM--|
[E] [E] [E] [E] [E] [E] [E] [E] [E] [E] [E] [E] [E] [E] [E] [E] [E] [E] [E] [E] [E] [E] [E] [E] [E] [E] [E] [E] [E] [E] [E] [E]  
 
 |-------------------|-------------------|-----------------|-------------------|
 |-------------------|-------------------|-----------------|-------------------|
 |-------------------|-------------------|-----------------|-------------------|
 |-------4h5p4-------|--4h=5p4-----------|-4-4-4-4-5-5-5-5-|-/9--9-9-9-7-7-7-2-|
 |--3--3-------5-3-3-|---------5-3-3-3-5-|-----------------|-----------------2-|
 |-------------------|-------------------|-----------------|-----------------0-|

|
 
 | PM------------------------------------|

| +W +H. E E E E E E E E E E E E E E E E E E
 
 |-------------------|-------------------|-----------------|-------------------|
 |-------------------|-------------------|-----------------|-------------------|
 |-(5)---------------|-(5)---------------|-----------------|-------------------|
 |-(5)---------------|-(5)-------------7-|-7-7-7-7-7-7-7-7-|--7--7-7-7-7-7-7-2-|
 |-(3)---------------|-(3)-----------5-5-|-5-5-5-5-5-5-5-5-|--5--5-5-5-5-5-5-2-|
 |-------------------|-------------------|-----------------|-----------------0-|

|
| Gtr III
| TP
| W W W H. E E
 
 |-------------------|-------------------|-----------------|-------------------|
 |-------------------|-------------------|-----------------|-----------------5-|
 |-------------------|-------------------|-----------------|-------------------|
 |-------------------|-------------------|-----------------|-------------------|
 |-------------------|-------------------|-----------------|-------------------|
 |-------------------|-------------------|-----------------|-------------------|

Guitar Solo
Gtrs I, II
+W +H. E E +W +H. E E
 
 |----------------|-------------------|------------------|-------------------|
 |----------------|-------------------|------------------|-------------------|
 |----------------|-----------------5-|-(5)--------------|-(5)---------------|
 |-(2)------------|-(2)-----------x-5-|-(5)--------------|-(5)-------------5-|
 |-(2)------------|-(2)-----------x-3-|-(3)--------------|-(3)-----------x-5-|
 |-(0)------------|-(0)---------------|------------------|---------------x-3-|

|
| Gtr III
| TP TP TP TP TP TP TP TP TP TP TP TP TP TP TP
| +Q Q Q Q Q Q Q Q Q Q Q Q Q Q Q Q
 
 |----------------|-------------------|------------------|-------------------|
 |-(5)--8--7--10--|--8---12--10--13---|-12---15--13--17--|-15---19--17--19---|
 |----------------|-------------------|------------------|-------------------|
 |----------------|-------------------|------------------|-------------------|
 |----------------|-------------------|------------------|-------------------|
 |----------------|-------------------|------------------|-------------------|

+W
 
 |--------------------------------------|
 |--------------------------------------|
 |--------------------------------------|
 |-(5)----------------------------------|
 |-(5)----------------------------------|
 |-(3)----------------------------------|

|
| E +S S E S S E E +E E
 
 |--------------------------------------|
 |-19b21r(19)-19-17-------17-17-(17)-19-|
 |------------------19-19---------------|
 |--------------------------------------|
 |--------------------------------------|
 |--------------------------------------|

+H. E E +W +H. E E
 
 |--------------------------------------|---------------|--------------------|
 |--------------------------------------|---------------|--------------------|
 |------------------------------------4-|-(4)-----------|--(4)---------------|
 |-(5)----------------------------x---4-|-(4)-----------|--(4)-------------2-|
 |-(5)----------------------------x---2-|-(2)-----------|--(2)--------x----2-|
 |-(3)----------------------------------|---------------|-------------x----0-|

|
| TP TP
| E +S S E S S E E +E E W +H. +E E
 
 |--------------------------------------|-17b19=========|=(17)------(17)r-12-|
 |-19b21r(19)-19-17-------17-17-(17)-19-|---------------|--------------------|
 |------------------19-19---------------|---------------|--------------------|
 |--------------------------------------|---------------|--------------------|
 |--------------------------------------|---------------|--------------------|
 |--------------------------------------|---------------|--------------------|

+W +H. E E
 
 |-------------------------------------|---------------------------------------|
 |-------------------------------------|---------------------------------------|
 |-------------------------------------|----------------------------------5----|
 |-(2)---------------------------------|-(2)-------------------------x----5----|
 |-(2)---------------------------------|-(2)-------------------------x----3----|
 |-(0)---------------------------------|-(0)-----------------------------------|

|
 
 | |--3--| |--3--| |--3--| |--3--| |--3--| |--3--| |--3--| |---3---|

| E E E E E E E E E E E E E E E E E E E E E E E E
 
 |-15p12----12-------------------------|---------------------------------------|
 |-------15----15p12-15p12----12-------|-15p12----12---------------------------|
 |-------------------------14----14p12-|-------14----14p12-14p12----12---------|
 |-------------------------------------|-------------------------14----14p==12-|
 |-------------------------------------|---------------------------------------|
 |-------------------------------------|---------------------------------------|

+W +H. E E
 
 |-------------------------------------|-------------------------------------|
 |-------------------------------------|-------------------------------------|
 |-(5)---------------------------------|-(5)---------------------------------|
 |-(5)---------------------------------|-(5)----------------------------5----|
 |-(3)---------------------------------|-(3)--------------------------x-5----|
 |-------------------------------------|------------------------------x-3----|

|
 
 | |--3--| |--3--| |--3--| |--3--| |--3---| |--3--| |--3--|

| E E E E E E E E E E E E E E E E E E E E E E E
 
 |-------------------------------------|-------------------------------------|
 |-------------------------------------|-------------------------------------|
 |-14p12----12-------------------------|--------------------------------9----|
 |-------14----14p12-14p12----12-------|-12-----------------------------x----|
 |-------------------------14----14p12-|-----14p12-14p12----12----------7----|
 |-------------------------------------|-----------------15----15p12-15------|

+W +H. E E
 
 |---------------------------|-------------------------------|
 |---------------------------|-------------------------------|
 |---------------------------|----------------------------4--|
 |-(5)-----------------------|--(5)-------------------x---4--|
 |-(5)-----------------------|--(5)-------------------x---2--|
 |-(3)-----------------------|--(3)--------------------------|

|
| +E E E E +E E E E +E E E E +E E E +E
 
 |---------------------------|-------------------------------|
 |---------------------------|-------------------------------|
 |-(9)-9-9-11-(11)-11-11-/12-|-(12)-12-12-14-(14)-14-14-(14)-|
 |-(x)-x-x--x--(x)--x--x---x-|--(x)--x--x--x--(x)--x--x--(x)-|
 |-(7)-7-7--9--(9)--9--9-/10-|-(10)-10-10-12-(12)-12-12-(12)-|
 |---------------------------|-------------------------------|

PM
+W +H. E E
 
 |-------------------------------------|------------------------------------------|
 |-------------------------------------|------------------------------------------|
 |-(4)---------------------------------|-(4)--------------------------------------|
 |-(4)---------------------------------|-(4)-----------------------------2--------|
 |-(2)---------------------------------|-(2)-----------------------------2--------|
 |-------------------------------------|-----------------------------0---0--------|

|
 
 | |--3--| |--3--| |--3--| |--3--| |--3--| |--3--| |--3--|

| E E E E E E E E E E E E E E E E E E E E E E +E
 
 |-------------------------------------|----------------------------17-(17)b19====|
 |-------------------------------------|-------------------15h17h19---------------|
 |----------------------------12h14h16-|----------14h16h17------------------------|
 |-------------------12h14h16----------|-14h16h17---------------------------------|
 |----------12h14h15-------------------|------------------------------------------|
 |-12h14h15----------------------------|------------------------------------------|

Breakdown
Gtr I
+Q Q E E E E H Q. E +Q E E E E E E H Q. E
 
 |--------------------|----------------|-----------------------|---------------|
 |--------------------|----------------|-----------------------|---------------|
 |--------------------|----------------|-----------------------|---------------|
 |-(2)----------------|---9-----7----5-|--(5)------------------|--5----------9-|
 |-(2)----------------|--10-----9----3-|--(3)------------------|--3-----5----7-|
 |-(0)--/12\--0-0-0-0-|----------------|-------0-0---0---0-0-0-|--------3------|

|
| Gtr III
| ~~~~~~~~~~~~~~~~~~~~~~~~~~~~~~~~~~~~~~~~~~~~~~~~~~~~~
| W +W +H +H W
 
 |-17-----------------|-(17)-----------|-(17)r=====(17)\-------|---------------|
 |--------------------|----------------|-----------------------|---------------|
 |--------------------|----------------|-----------------------|---------------|
 |--------------------|----------------|-----------------------|---------------|
 |--------------------|----------------|-----------------------|---------------|
 |--------------------|----------------|-----------------------|---------------|

|
| Gtr II
| +W +W +W +W
 
 |--------------------|----------------|-----------------------|---------------|
 |--------------------|----------------|-----------------------|---------------|
 |--------------------|----------------|-----------------------|---------------|
 |-(2)----------------|--(2)-----------|--(2)------------------|-(2)-----------|
 |-(2)----------------|--(2)-----------|--(2)------------------|-(2)-----------|
 |-(0)----------------|--(0)-----------|--(0)------------------|-(0)-----------|

Gtr I
+Q E E E E E E H Q. E +Q E E E E E E H H
 
 |-------------------|---------------|------------------|-----------|
 |-------------------|---------------|------------------|-----------|
 |-------------------|---------------|------------------|-----------|
 |-(9)\--------------|--9-----7----5-|-(5)--------------|-5----7----|
 |-(7)\--------------|-10-----9----3-|-(3)--------------|-3----5----|
 |-------0-0-0-0-0-0-|---------------|------0-0-0-0-0-0-|-----------|

|
| Gtr II
| +W +W +W H H
 
 |-------------------|---------------|------------------|-----------|
 |-------------------|---------------|------------------|-----------|
 |-------------------|---------------|------------------|-----------|
 |-(2)---------------|-(2)-----------|-(2)--------------|-5----7----|
 |-(2)---------------|-(2)-----------|-(2)--------------|-3----5----|
 |-(0)---------------|-(0)-----------|-(0)--------------|-----------|

Gtrs I, II
Q E E E E E E H Q. E +Q E E E E E E H Q. E
 
 |-----------------|--------------|------------------|-------------|
 |-----------------|--------------|------------------|-------------|
 |-----------------|--------------|------------------|-------------|
 |-9\--------------|--9----7----5-|-(5)--------------|-5-----------|
 |-7\--------------|-10----9----3-|-(3)--------------|-3----5----2-|
 |-----0-0-0-0-0-0-|--------------|------0-0-0-0-0-0-|------3----0-|

+Q E E E E E E H Q. E +Q E E E E E E H Q. E
 
 |------------------|--------------|------------------|-------------|
 |------------------|--------------|------------------|-------------|
 |------------------|--------------|------------------|-----------7-|
 |------------------|--9----7----5-|-(5)--------------|-5---------7-|
 |-(2)--------------|-10----9----3-|-(3)--------------|-3----5----5-|
 |-(0)--0-0-0-0-0-0-|--------------|------0-0-0-0-0-0-|------3------|

Pre-Chorus
Gtr I
+W +H. +E E +E E E E E E E E E E E E E E E E 3x
 
 ||-------------|----------------|-------------------|-------------------||
 ||o------------|----------------|-------------------|------------------o||
 ||--(7)--------|-(7)------(7)---|-------------------|---------------7---||
 ||--(7)--------|-(7)------(7)---|-------5---5p4-----|-4---4h5---5---7---||
 ||o-(5)--------|-(5)------(5)-3-|-(3)-3---3-----3-3-|---3-----3-3---5--o||
 ||-------------|----------------|-------------------|-------------------||

|
| Gtr II
| +W +H. +E E +E E E E E E E E E E E E E E E E 3x
 
 ||-------------|----------------|-------------------|-------------------||
 ||o------------|----------------|-------------------|------------------o||
 ||--(7)--------|-(7)------(7)---|-------------------|---------------7---||
 ||--(7)--------|-(7)------(7)---|-------2---2p0-----|-0---0h2---5---7---||
 ||o-(5)--------|-(5)------(5)-3-|-(3)-3---3-----3-3-|---3-----3-3---5--o||
 ||-------------|----------------|-------------------|-------------------||

Gtrs I, II
+W E E E E E E E E E E +E E +E E E E +E Q E E E E E
 
 |------------|-----------------|---------------------|------------------|
 |------------|-----------------|---------------------|------------------|
 |-(7)--------|-x pick scrape x-|-----------------4-4-|-(4)-4------------|
 |-(7)--------|-x pick scrape x-|-5-5-(5)-5-(5)---4-4-|-(4)-4------------|
 |-(5)--------|-x pick scrape x-|-5-5-(5)-5-(5)---2-2-|-(2)-2----2-0---2-|
 |------------|-----------------|-3-3-(3)-3-(3)-0-----|--------0-----3-0-|

Out-Chorus
Gtr I
PM| PM PM|
+E S S E E E E E S S E E E E E E E E
 
 ||------------------------|-----------------|
 ||o-----------------------|-----------------|
 ||------------------------|-----------------|
 ||----------5---5p4-------|-4---4h5-------2-|
 ||o-(2)-------------------|-----------2---2-|
 ||--(0)-0-0---0-----0-0-0-|---0-----0-0---0-|

|
| Gtr II
| PM| PM PM|
| +E S S E E E E E S S E E E E E E E E
 
 ||------------------------|-----------------|
 ||o-----------------------|-----------------|
 ||----------4---4p2-------|-2---2h4---------|
 ||------------------------|---------------2-|
 ||o-(2)-------------------|-----------2---2-|
 ||--(0)-0-0---0-----0-0-0-|---0-----0-0---0-|

|
| Gtr III
| W W
 
 ||------------------------|-----------------|
 ||o-----------------------|-----------------|
 ||------------------------|-----------------|
 ||------------------------|-----------------|
 ||o-----------------------|-----------------|
 ||------------------------|-----------------|

PM|
+E S S E E E E E S S E E E E E E E E
 
 |-----------------------|--------------------|
 |-----------------------|--------------------|
 |-----------------------|------------7----5--|
 |-(2)-----5---5p4-------|-4---4h5----7----5--|
 |-(2)-------------------|------------5----3--|
 |-(0)-0-0---0-----0-0-0-|---0-----0----0-----|

|
| PM|
| +E S S E E E E E S S E E E E E E E E
 
 |-----------------------|--------------------|
 |-----------------------|--------------------|
 |---------4---4p2-------|-2---2h4------------|
 |-(2)-------------------|------------7----5--|
 |-(2)-------------------|------------5----3--|
 |-(0)-0-0---0-----0-0-0-|---0-----0----0-----|

|
| W H Q. E
 
 |-----------------------|--------------------|
 |-----------------------|--------------------|
 |-----------------------|----------------17--|
 |-----------------------|-----------------x--|
 |-----------------------|----------------15--|
 |-----------------------|--------------------|

PM PM PM| PM PM PM
[+E] [E] [E] [E] [E] [E] [E] [E] [E] [E] [E] [E] [E] [E] [E] [E]  
 
 |---------------------------|-------------------------|
 |---------------------------|-------------------------|
 |---------------------------|-------------------------|
 |--(5)-----5-----5--4-------|--4-----4--5-----5-----7-|
 |--(3)--3-----3--------3--3-|-----3--------3--3--3--5-|
 |---------------------------|-------------------------|

|
| PM PM PM| PM PM PM
| +E E E E E E E E E E E E E E E E
 
 |---------------------------|-------------------------|
 |---------------------------|-------------------------|
 |---------------------------|-------------------------|
 |--(5)-----2-----2--0-------|--0-----0--2-----5-----7-|
 |--(3)--3-----3--------3--3-|-----3--------3--3--3--5-|
 |---------------------------|-------------------------|

|
| +E E E E E E E E E E E E E E E E
 
 |---------------------------|-------------------------|
 |---------------------------|-------------------------|
 |-(17)-17-17-17-17-17-17-17-|-17-17-17-17-17-17-17-16-|
 |--(x)--x--x--x--x--x--x--x-|--x--x--x--x--x--x--x--x-|
 |-(15)-15-15-15-15-15-15-15-|-15-15-15-15-15-15-15-14-|
 |---------------------------|-------------------------|

PM PM PM| PM PM PM
[+E] [E] [E] [E] [E] [E] [E] [E] [E] [E] [E] [E] [E] [E] [E] [E]  
 
 |---------------------------|-------------------------||
 |---------------------------|------------------------o||
 |---------------------------|-------------------------||
 |--(7)--0--5--0--5--4--0--0-|--4--0--4--5--0--7----2--||
 |--(5)----------------------|-----------------5----2-o||
 |---------------------------|--------------------0-0--||

|
| PM PM PM| PM PM PM
| +E E E E E E E E E E E E E E E E
 
 |---------------------------|-------------------------||
 |---------------------------|------------------------o||
 |---------------------------|-------------------------||
 |--(7)--0--9--0--9--7--0--0-|--7--0--7--9--0--7----2--||
 |--(5)----------------------|-----------------5----2-o||
 |---------------------------|--------------------0-0--||

|
| +E E E E E E E E E E E E E E Q
 
 |---------------------------|-------------------------||
 |---------------------------|------------------------o||
 |-(16)-16-16-16-16-16-16-16-|-19-19-19-19-19-19-19----||
 |--(x)--x--x--x--x--x--x--x-|--x--x--x--x--x--x--x----||
 |-(14)-14-14-14-14-14-14-14-|-17-17-17-17-17-17-17---o||
 |---------------------------|-------------------------||

Outro
[+E] [E] [E] [E] [E] [E] [E] [E] [E] [E] [E] [E] [E] [E] [E] [E] [+E] [E] [E] [E] [E] [E] [E] [E] [E] [E] [E] [E] [E] [E] [E] [E]  
 
 |-------------------|-----------------|-------------------|-----------------|
 |-------------------|-----------------|-------------------|-----------------|
 |-------------------|-----------------|-------------------|-----------------|
 |-(2)---5---5p4-----|-4---4h5-------2-|-(2)---5---5p4-----|-4---4h5-------2-|
 |-(2)---------------|-----------2---2-|-(2)---------------|-----------2---2-|
 |-(0)-0---0-----0-0-|---0-----0-0---0-|-(0)-0---0-----0-0-|---0-----0-0---0-|

|
| +E E E E E E E E E E E E E E E E +E E E E E E E E E E E E E E E E
 
 |-------------------|-----------------|-------------------|-----------------|
 |-------------------|-----------------|-------------------|-----------------|
 |-------4---4p2-----|-2---2h4---------|-------4---4p2-----|-2---2h4---------|
 |-(2)---------------|---------------2-|-(2)---------------|---------------2-|
 |-(2)---------------|-----------2---2-|-(2)---------------|-----------2---2-|
 |-(0)-0---0-----0-0-|---0-----0-0---0-|-(0)-0---0-----0-0-|---0-----0-0---0-|

[+E] [E] [E] [E] [E] [E] [E] [E] [E] [E] [E] [E] [E] [E] [E] [E]  
 
 |----------------------|--------------------|
 |----------------------|--------------------|
 |-------12---12s11-----|-11---11s12---------|
 |-(2)------------------|------------------2-|
 |-(2)---10---10s=9-----|--9----9s10---2---2-|
 |-(0)-0----0-------0-0-|----0-------0-0---0-|

|
| +E E E E E E E E E E E E E E E E
 
 |----------------------|--------------------|
 |-------12---12s10-----|-10---10s12---------|
 |----------------------|--------------------|
 |-(2)----9----9s=7-----|--7----7s=9-------2-|
 |-(2)------------------|--------------2---2-|
 |-(0)-0----0-------0-0-|----0-------0-0---0-|

[+E] [E] [E] [E] [E] [E] [E] [E] [E] [E] [E] [E] [E] [E] [E] [E]  
 
 |----------------------|-------------------|
 |----------------------|-------------------|
 |-------12---12s11-----|-11---11s9---7---9-|
 |-(2)------------------|-------------------|
 |-(2)---10---10s=9-----|--9----9s7---5---7-|
 |-(0)-0----0-------0-0-|----0------0-------|

|
| +E E E E E E E E E E E E E E E E
 
 |----------------------|-------------------|
 |-------12---12s10-----|-10---10s8---------|
 |----------------------|-------------------|
 |-(2)----9----9s=7-----|--7----7s5-------2-|
 |-(2)------------------|-------------2---2-|
 |-(0)-0----0-------0-0-|----0------0-0---0-|

~~~
+Q +Q H
 
 |------------------|
 |------------------|
 |-(9)---(9)\-------|
 |------------------|
 |-(7)---(7)\-------|
 |------------------|

|
| +W
 
 |------------------|
 |------------------|
 |------------------|
 |-(2)--------------|
 |-(2)--------------|
 |-(0)--------------|

Duration Legend
 
 ---------------
 W - whole; H - half; Q - quarter; E - 8th; S - 16th; T - 32nd; X - 64th; a - acciaccatura

+ - note tied to previous; . - note dotted; .. - note double dotted
Uncapitalized letters represent notes that are staccato (1/2 duration)
Irregular groupings are notated above the duration line
Duration letters will always appear directly above the note/fret number it represents the
duration for. Duration letters with no fret number below them represent rests. Multi-
bar rests are notated in the form Wxn, where n is the number of bars to rest for. Low
melody durations appear below the staff
Tablature Legend
 
 ----------------

h - hammer-on
p - pull-off
b - bend
pb - pre-bend
r - bend release (if no number after the r, then release immediately)
/\ - slide into or out of (from/to "nowhere")
s - legato slide
S - shift slide
- natural harmonic
(n) - artificial harmonic
n(n) - tapped harmonic
~ - vibrato
tr - trill
T - tap
TP - trem. picking
PM - palm muting
\n/ - tremolo bar dip; n = amount to dip
\n - tremolo bar down
n/ - tremolo bar up
/n\ - tremolo bar inverted dip
= - hold bend; also acts as connecting device for hammers/pulls
- volume swell (louder/softer)
x - on rhythm slash represents muted slash
o - on rhythm slash represents single note slash
Misc Legend
 
 -----------

| - bar
|| - double bar
||o - repeat start
o|| - repeat end
*| - double bar (ending)
: - bar (freetime)
$ - Segno
& - Coda
Tempo markers - = BPM(8/16=s8/s16), where s8 = swing 8ths, s16 = swing 16ths
***************************************************************************************
* Generated using Power Tab Editor by Brad Larsen - http://powertab.guitarnetwork.org *
***************************************************************************************

Important: The song above is NOT stored on the Chordie server. The original song is hosted at www.guitaretab.com. Chordie works as a search engine and provides on-the-fly formatting. Chordie does not index songs against artists'/composers' will. To remove this song please click here.

Text color:
Chord color:
Chord grids: 
Font size:    
Page size: 

E
Rate #1 of 1 versions

Jango Player

Login - add to songbook

SHARE PAGE  




You need to log in to post comments