Guitar Tabs, Chords and Lyrics
Server problems seems to be fixed. Chordie has been experiencing problems with songs disappearing. These issues now seems to be fixed, but still verifying the fix. If you find anything strange, please email admin@chordie.com.


Stop Look and Listen  Army of Anyone

Author/Artist: Army Of Anyone
Title: Stop Look and Listen
Transcribed by: Saverain
b bend
r release
/ slide up
\ slide down
h hammer on
p pull off
Hint: There are several positions that the G2 chords
can be played. You can mess around with the chords
until it's right.
Standard Tuning
 
 ---------------|----------------|---------------------------------------------|
 ---------------|----------------|---------------------------------------------|
 ---------------|-9/11--11/16vv\-|---------------------------------------------|
 ---------------|----------------|---------------------------------------------|
 ---------------|----------------|---------------------------------------------|
 ---------------|----------------|---------------------------------------------|

G1 Intro/Chorus
 
 -----------------|-x--x-x-x--x-x-x--x-x-x--x-x-x--x-x-x--x-x-x--x-x-x--x-x-|--|
 -----------------|-x--x-x-x--x-x-x--x-x-x--x-x-x--x-x-x--x-x-x--x-x-x--x-x-|--|
 -----------------|-8--8-8-8--8-8-6--6-6-6--6-6-4--4-4-4--4-4-4--4-4-4--4-4-|--|
 -----------------|-9--9-9-9--9-9-7--7-7-7--7-7-6--6-6-6--6-6-5--5-5-5--5-5-|--|
 -----------------|-9--9-9-9--9-9-7--7-7-7--7-7-7--7-7-7--7-7-5--5-5-5--5-5-|--|
 -----------------|---------------------------------------------------------|--|

G2 Intro/Chorus d d u d d u (B A E G) (Rythythm changes)
 
 -------|-----------------------------------------|----------------------------|
 -------|------------------12\7-------------------|----------------------------|
 -------|-11--------------------------------------|----------------------------|
 -------|-----------------------------------------|----------------------------|
 -------|-----------------------------------------|----------------------------|
 -------|-----------------------------------------|----------------------------|

G1 Verse
 
 -------|----------|-----------------------------------------------------------|
 -------|-x-x------|-----------------------------------------------------------|
 -------|-x-x------|-----------------------------------------------------------|
 -------|-x-x------|-----------------------------------------------------------|
 -------|-x-x------|-----------------------------------------------------------|
 -------|----------|-----------------------------------------------------------|

G2 Verse Repeat
 
 -------|-----------------------------------------|----------------------------|
 -------|-7----7----7----7----7----7----7----7----|----------------------------|
 -------|-6----6----6----6----6----6----6----6----|----------------------------|
 -------|-9----9----9----9----9----9----9----9----|----------------------------|
 -------|-----------------------------------------|----------------------------|
 -------|-----------------------------------------|----------------------------|

G3 Verse
 
 -------|-x---x--x-x-x---x--x-x-x---x--x-x-x---x--x-x----|---------------------|
 -------|-x---x--x-x-x---x--x-x-x---x--x-x-x---x--x-x----|---------------------|
 -------|-7---7--7-7-6---6--6-6-7---7--7-7-4---4--4-4----|---------------------|
 -------|-7---7--7-7-7---7--7-7-7---7--7-7-6---6--6-6----|---------------------|
 -------|-9---9--9-9-7---7--7-7-5---5--5-5-7---7--7-7----|---------------------|
 -------|------------------------------------------------|---------------------|

[G2] [d] [d] [d] [u] [(D] [G] [D] [E)]  
 
 -------|-------------------------------------|--|-----------------------------|
 -------|-7-------10-------7-------10---------|--|-----------------------------|
 -------|---7--------9-------7--------9-------|--|-----------------------------|
 -------|-----7--------7-------7--------7--6--|2x|-----------------------------|
 -------|-------------------------------------|--|-----------------------------|
 -------|-------------------------------------|--|-----------------------------|

[G3]  
 
 -----|--------------------------------------------------------|---------------|
 -----|--------------------------------------------------------|---------------|
 -----|-12/14-14------------14/16br\14------------14/16br------|---------------|
 -----|--------------------------------------------------------|---------------|
 -----|--------------------------------------------------------|---------------|
 -----|--------------------------------------------------------|---------------|

G1 Interlude
 
 -----|-x--x-x-x--x-x-x--x-x-x--x-x-x--x-x-x--x-x-x--x-x-x--x-x-|--------------|
 -----|-x--x-x-x--x-x-x--x-x-x--x-x-x--x-x-x--x-x-x--x-x-x--x-x-|--------------|
 -----|-7--7-7-7--7-7-7--7-7-7--7-7-6--6-6-6--6-6-6--6-6-6--6-6-|--------------|
 -----|-7--7-7-7--7-7-7--7-7-7--7-7-7--7-7-7--7-7-7--7-7-7--7-7-|--------------|
 -----|-9--9-9-9--9-9-9--9-9-9--9-9-7--7-7-7--7-7-7--7-7-7--7-7-|--------------|
 -----|---------------------------------------------------------|--------------|

G2 Interlude
 
 -----|------------------------------------------|-----------------------------|
 -----|------------------------------------------|-----------------------------|
 -----|-----7---7-----7---7-----9---9-----9---9--|-----------------------------|
 -----|-5/7-------5/7-------7/9-------7/9--------|-----------------------------|
 -----|-------9---------9---------9---------9----|-----------------------------|
 -----|------------------------------------------|-----------------------------|

G3 Interlude
 
 -----|--------------------------------------------------------|---------------|
 -----|---7------12-12-12-12-12------7-7-7-7-12-12-12----------|---------------|
 -----|--------------------------------------------------------|---------------|
 -----|--------------------------------------------------------|---------------|
 -----|--------------------------------------------------------|---------------|
 -----|--------------------------------------------------------|---------------|

G4 Interlude P.M. All
 
 -----|---------------------------------------|--------------------------------|
 -----|-12----------10---------12-------------|--------------------------------|
 -----|-11----------11---------11-------------|--------------------------------|
 -----|---------------------------------------|--------------------------------|
 -----|---------------------------------------|--------------------------------|
 -----|---------------------------------------|--------------------------------|

G1 Interlude Out
 
 -----|-x--x-x-x--x-x-x--x-x-x--x-x-x--x--x-x-x-x-x--x-x-x-x---|---------------|
 -----|-x--x-x-x--x-x-x--x-x-x--x-x-x--x--x-x-x-x-x--x-x-x-x---|---------------|
 -----|-7--7-7-7--7-7-7--7-7-7--7-7-4--4--4-4-4-4-4--4-4-4-4---|---------------|
 -----|-7--7-7-7--7-7-7--7-7-7--7-7-6--6--6-6-6-6-6--6-6-6-6---|---------------|
 -----|-9--9-9-9--9-9-5--5-5-5--5-5-7--7--7-7-7-7-7--7-7-7-7---|---------------|
 -----|--------------------------------------------------------|---------------|

G2 Interlude Out
 
 -----|-0------------------7-------------------0------------------7---------|--|
 -----|-7------------------7-------------------7------------------7---------|--|
 -----|-7------------------9-------------------7------------------9---------|--|
 -----|-9------------------7-------------------9------------------7---------|--|
 -----|-9------------------7-------------------9------------------7---------|--|
 -----|---------------------------------------------------------------------|--|

G2 d Mid Riff u u u
 
 ------|------------------|---------------------|--|---------------------------|
 ------|------------------|---------------------|--|---------------------------|
 ------|------------------|---------------------|--|---------------------------|
 ------|-5---5-------5----|----5---5-------5----|3x|---------------------------|
 ------|---7---7-5-7---7--|-7----7---7-5-7---7--|--|---------------------------|
 ------|------------------|-0-------------------|--|---------------------------|

G3 Mid Riff P.M.>B
 
 ------|---------------------------------|-------------------------------------|
 ------|---------------9/10-9------------|-------------------------------------|
 ------|-9------8-9-11--------11-9-9/11--|-------------------------------------|
 ------|-9/11\9--------------------------|-------------------------------------|
 ------|---------------------------------|-------------------------------------|
 ------|---------------------------------|-------------------------------------|

G1 Outro
 
 ------|---------------------------------|------------------------|------------|
 ------|---------------------------------|-12/14-12-10-12-10/12---|------------|
 ------|---------------------------------|-11/13-11-9--11-9-/11---|------------|
 ------|---------------------------------|------------------------|------------|
 ------|---------------------------------|------------------------|------------|
 ------|---------------------------------|------------------------|------------|

G3 Outro

Important: The song above is NOT stored on the Chordie server. The original song is hosted at www.guitaretab.com. Chordie works as a search engine and provides on-the-fly formatting. Chordie does not index songs against artists'/composers' will. To remove this song please click here.

Text color:
Chord color:
Chord grids: 
Font size:    
Page size: 

D G G2 G3
Rate #1 of 2 versions

Login - add to songbook

SHARE PAGE  




You need to log in to post comments