Guitar Tabs, Chords and Lyrics
Major upgrade!! After one year development the new version of Chordie is now online! Please give feedback.


Love Makes the World Go Round   Ashlee Simpson

 
 e-------------------------------------|------------------------------------|
 b-------------------------------------|------------------------------------|
 g--9-9-9-9-8-8-8-8--------------------|-9-9-9-9-8-8-8-8--------------------|
 d--7-7-7-7-9-9-9-9-11-11-11-11-7-7-7-7|-7-7-7-7-9-9-9-9-11-11-11-11-7-7-7-7|
 a--7-7-7-7-9-9-9-9-11-11-11-11-7-7-7-7|-7-7-7-7-9-9-9-9-11-11-11-11-7-7-7-7|
 e----------7-7-7-7- 9- 9- 9- 9-5-5-5-5|-0-0-0-0-7-7-7-7- 9- 9- 9- 9-5-5-5-5|

 


 


 pre-chorus:


 

 
 e----------------------------------------------------------------------------|
 b----------------------------------------------------------------------------|
 g----------------------------------------------------------------------------|
 d----------------------------------------------------------------------------|
 a11-11-11-11-11-11-11-11-7-7-7-7-7-7-7-7-11-x8-9-9-9-9-9-9-9-9-9-9-9-9-9-9-9-|
 E-9- 9- 9- 9- 9- 9- 9- 9-5-5-5-5-5-5-5-5- 9----7-7-7-7-7-7-7-7-7-7-7-7-7-7-7-|

 


 -hold on its tragic stubblein through all this static--


 


 Chorus:


 


 

 
 a-----------------------------------------------------------------------------|
 b-----------------------------------------------------------------------------|
 g-----------------------------------------------------------------------------|
 d-9-9-9-9-9-9-9-9-------------------------------------------------------------|
 a-7-7-7-7-7-7-7-7-9-9-9-9-9-9-9-9-11-11-11-11-11-11-11-11-9-9-9-9-10-10-10-10-|
 E-----------------7-7-7-7-7-7-7-7- 9- 9- 9- 9- 9- 9- 9- 9-7-7-7-7- 8- 8- 8- 8-|

 


 


 I just wanna talk to you, but my broken heart just has no use I,


 


 

 
 a-------------------------------------------------------------------------|
 b-------------------------------------------------------------------------|
 g-------------------------------------------------------------------------|
 d-------------------------------------------------------------------------|
 a-11-11-11-11-11-11-11-11-9-9-9-9-9-9-9-9-7-7-7-7-7-7-7-7-9-9-9-9-9-9-9-9-|
 E- 9- 9- 9- 9- 9- 9- 9- 9-7-7-7-7-7-7-7-7-5-5-5-5-5-5-5-5-7-7-7-7-7-7-7-7-|


Important: The song above is NOT stored on the Chordie server. The original song is hosted at www.guitaretab.com. Chordie works as a search engine and provides on-the-fly formatting. Chordie does not index songs against artists'/composers' will. To remove this song please click here.

This song is displayed as text-only. Transposing and tuning is only available for chordpro-songs.
Rate #6 of 8 versions

Login - add to songbook

SHARE PAGE  



You need to log in to post comments