Guitar Tabs, Chords and Lyrics
Major upgrade!! After one year development the new version of Chordie is now online! Please give feedback.


La repera  Asto Pituak

Ayer se fue,
[Em]cogió su ch[G]upa y se puso a caminar,
un impe[D]rdible y un petacho roto[C]
y una can[G]ción de ja[D]rcor.
¿Dónd[G]e irá?.
Se de[G]spidió
y con firmeza plantó[Em] cara a la soci[G]edad
y empezó a a[D]utogestionar su vi[C]da con [G]decisión y [D]valor, mucho v[G]alor.
Y se[Bm] marchó, y [Em]a su barco le llamo [C]li-[C]ber-[G]tad
y en la [D]tierra descubrió ANARK[G]I- [D]I -[Em] A,
so[C]nrió su s[D]ueño hizo r[G]eal.
Pero l[G]legó la maldita estirpe y s[Em]u sucio co[G]ntrol,
no po[D]día permitir que nadie vi[C]viera en p[G]az, como[D] no, com[G]o no.
Y así oc[G]urrió su sueño fue aplastado por[Em] el m[G]al
y no p[D]udo respirar mas aire[C] sin pa[G]gar,
y mu[D]rió, y m[G]urió.
Y se[Bm] esfumó,
[Em]pero la esperanza sigue [D]vi-v[C]a a[G]ún
porque todav[D]ía existen seres que luc[C]han por algo común[G],
la oku[C]pación y la lib[D]ertad to[G]tal.
 
 e|-----------------------------------------------------------------|
 B|------------------------------8-7---8-7--------------------------|
 G|---677777677777677777---9~~~~~----7------7---5-4---5-4-----------|
 D|-------------------------------------------5-----5-------7---5---|
 A|-----------------------------------------------------------------|
 E|-----------------------------------------------------------------|

Y se[Bm] esfumó,
[Em]pero la esperanza sigue v[D]i-v[C]a a[G]ún
porque todav[D]ía existen seres que luc[C]han por algo común.[G]
La em[C]oción, los sue[D]ños, la p[G]asión.
 
 e|---------------------------------------------------|
 B|---------------------------------------------------|
 G|---------------------------------------------------|
 D|---5-5---4-4---2-2---------------------------------| X 4
 A|---------------------5-5---3-3---2-2---------------|
 E|---------------------------------------5-5---3-3---|


Important: The song above is NOT stored on the Chordie server. The original song is hosted at www.guitaretab.com. Chordie works as a search engine and provides on-the-fly formatting. Chordie does not index songs against artists'/composers' will. To remove this song please click here.

Text color:
Chord color:
Chord grids: 
Font size:    
Page size: 

Bm C D Em G
Rate #1 of 2 versions

Jango Player

Login - add to songbook

SHARE PAGE  




You need to log in to post comments