Guitar Tabs, Chords and Lyrics
Update 25:10. 13:00. Site is back up running again. Songbooks are recovered. Woring on getting search back up..


Il signore delle botole  Ataraxia

Band: Ataraxia
http://www.ataraxia.net/
Title: Il Signore Delle Botole (The Lord of the Trapdoors)
Album: Il Fantasma Dell Opera (The Phantom of the Opera)
Tab by: The Dark Wolf
http://thedarkwolf.pt.vu/
Software used: Guitar Pro 5.2
* * * * * * * * * * * * * * * * * * * * * * * * * * * * * * * * * *
* You may also find: *
* - Guitar Pro 4 file; *
* - PDF version tab; *
* - MIDI sound sample; *
* - MP3 (RSE*) sound sample. *
* In: http://thedarkwolf.byethost12.com/ug/ *
* *
* *RSE = (Guitar Pro 5.2's) Real Sound Engine *
* * * * * * * * * * * * * * * * * * * * * * * * * * * * * * * * * *
* * * * * * * * * * * * * * * * * * * * * * * * * * * * * * * * * *
* _________________________________________________________ *
* | Free for personal use and edit only. No commercial use! | *
* 创创创创创创创创创创创创创创创创创创创创创创创创创创创创 *
* * * * * * * * * * * * * * * * * * * * * * * * * * * * * * * * * *
Author's Note:
Below is the Guitar Pro's Ascii export result. I strongly recommend to use the guitar
file or the pdf version, as they are much more cleaner and understandable.
If you are carefull with the repeats (easy to understand if you listen while following
tab) it should sound pretty close to the original. Only main guitar tabbed, tough.
Standard tuning (EBGDAE)
NH
E E E E E E E E E E E E E E E E 4x
 
 E||------3--------2--------0--|-----0--------7------------||
 B||---------0--------0--------|--------0----------0-----0---||
 G||*-----------0--------0-----|--5--------5----------0-----*||
 D||*--------------------------|----------------------------*||
 A||---------------------------|-----------------------------||
 E||---0-----------------------|-----------------------------||

[E] [E] [E] [E] [E] [E] [E] [E] [E] [E] [E] [E] [E] [E] [E] [E]  
 
 ---------------0-----------|--------------0-----------|
 ---------3--------3-----3--|--------3--------3-----0--|
 *-----0-----0--------0-----|-----0-----0--------0-----|
 *--------------------------|--------------------------|
 ---3-----------------------|--3-----------------------|
 ---------------------------|--------------------------|

[E] [E] [E] [E] [E] [E] [E] [E] [E] [E] [E] [E] [E] [E] [E] [E]  
 
 --------------3-----------|--------------3-----------|
 --------1--------1-----1--|--------1--------1-----0--|
 -----2-----2--------2-----|-----2-----2--------2-----|
 --------------------------|--------------------------|
 --0-----------------------|--0-----------------------|
 --------------------------|--------------------------|

[E] [E] [E] [E] [E] [E] [E] [E] [E] [E] [E] [E] [E] [E] [E] [E]  
 
 --------------------------|--------------------------|
 --------------0-----------|--------------0-----------|
 --------0--------0-----0--|--------0--------0-----0--|
 -----0-----0--------0-----|-----2-----2--------2-----|
 --------------------------|--------------------------|
 --3-----------------------|--3-----------------------|

[E] [E] [E] [E] [E] [E] [E] [E] [E] [E] [E] [E] [E] [E] [E] [E]  
 
 --------------------------|---------------------------||
 --------------0-----------|--------------0------------||
 --------2--------2-----0--|--------0--------0-----0--*||
 -----2-----2--------2-----|-----0-----0--------0-----*||
 --------------------------|---------------------------||
 --3-----------------------|--3------------------------||

[E] [E] [E] [E] [E] [E] [E] [E] [E] [E] [E] [E] [E] [E] [E] [E]  
 
 --------------0-----------|--------------------------|
 --------1--------1-----0--|--------------2-----------|
 -----0-----0--------0-----|--------3--------3-----3--|
 --------------------------|-----4-----4--------4-----|
 --3-----------------------|--------------------------|
 --------------------------|--2-----------------------|

[E] [E] [E] [E] [E] [E] [E] [E] [E] [E] [E] [E] [E] [E] [E] [E]  
 
 --------------2-----------|--------------3-----------|
 --------3--------3-----3--|-----------------3-----3--|
 -----4-----4--------4-----|--------4-----------4-----|
 --------------------------|-----5-----5--------------|
 --2-----------------------|--------------------------|
 --------------------------|--0-----------------------|

[E] [E] [E] [E] [E] [E] [E] [E] [E] [E] [E] [E] [E] [E] [E] [E]  
 
 --------------2-----------|--------------2-----------|
 --------3--------3-----3--|-----------3-----3-----0--|
 -----2-----2--------2-----|--2-----2-----------2-----|
 --0-----------------------|-----0--------------------|
 --------------------------|--------------------------|
 --------------------------|--------------------------|

E E E E E E E E H Q Q S Q S Q S Q S
 
 --------------0-----------|----------------0----|--L----------------------|
 --------2--------2-----2--|---------------------|----3----L-1----L-0----L-|
 -----3-----3--------3-----|---------------------|-------------------------|
 --------------------------|---------------------|-------------------------|
 --4-----------------------|---------------------|-------------------------|
 --------------------------|--2--------L---------|-------------------------|

E S E S Q S Q S Q S Q S S S S S S S
 
 --------------------------|---------------------------------|
 --------------------------|---------------------------------|
 --2--L-0--L---------------|---------------------------------|
 ------------4----L-2----L-|--0----L-------------------------|
 --------------------------|---------3----L-2h-3p-2p-0h------|
 --------------------------|----------------------------3p-2-|

NH
E E E E E E E E E E E E E E E E 4x
 
 |------3--------2--------0--|-----0--------7------------||
 |---------0--------0--------|--------0----------0-----0---||
 |*-----------0--------0-----|--5--------5----------0-----*||
 |*--------------------------|----------------------------*||
 |---------------------------|-----------------------------||
 |---0-----------------------|-----------------------------||

[E] [E] [E] [E] [E] [E] [E] [E] [E] [E] [E] [E] [E] [E] [E] [E]  
 
 ---------------0-----------|--------------0-----------|
 ---------3--------3-----3--|--------3--------3-----0--|
 *-----0-----0--------0-----|-----0-----0--------0-----|
 *--------------------------|--------------------------|
 ---3-----------------------|--3-----------------------|
 ---------------------------|--------------------------|

[E] [E] [E] [E] [E] [E] [E] [E] [E] [E] [E] [E] [E] [E] [E] [E]  
 
 --------------3-----------|--------------3-----------|
 --------1--------1-----1--|--------1--------1-----0--|
 -----2-----2--------2-----|-----2-----2--------2-----|
 --------------------------|--------------------------|
 --0-----------------------|--0-----------------------|
 --------------------------|--------------------------|

[E] [E] [E] [E] [E] [E] [E] [E] [E] [E] [E] [E] [E] [E] [E] [E]  
 
 --------------------------|--------------------------|
 --------------0-----------|--------------0-----------|
 --------0--------0-----0--|--------0--------0-----0--|
 -----0-----0--------0-----|-----2-----2--------2-----|
 --------------------------|--------------------------|
 --3-----------------------|--3-----------------------|

[E] [E] [E] [E] [E] [E] [E] [E] [E] [E] [E] [E] [E] [E] [E] [E]  
 
 --------------------------|---------------------------||
 --------------0-----------|--------------0------------||
 --------2--------2-----0--|--------0--------0-----0--*||
 -----2-----2--------2-----|-----0-----0--------0-----*||
 --------------------------|---------------------------||
 --3-----------------------|--3------------------------||

[E] [E] [E] [E] [E] [E] [E] [E] [E] [E] [E] [E] [E] [E] [E] [E]  
 
 --------------0-----------|--------------------------|
 --------1--------1-----0--|--------------2-----------|
 -----0-----0--------0-----|--------3--------3-----3--|
 --------------------------|-----4-----4--------4-----|
 --3-----------------------|--------------------------|
 --------------------------|--2-----------------------|

[E] [E] [E] [E] [E] [E] [E] [E] [E] [E] [E] [E] [E] [E] [E] [E]  
 
 --------------2-----------|--------------3-----------|
 --------3--------3-----3--|-----------------3-----3--|
 -----4-----4--------4-----|--------4-----------4-----|
 --------------------------|-----5-----5--------------|
 --2-----------------------|--------------------------|
 --------------------------|--0-----------------------|

[E] [E] [E] [E] [E] [E] [E] [E] [E] [E] [E] [E] [E] [E] [E] [E]  
 
 --------------2-----------|--------------2-----------|
 --------3--------3-----3--|-----------3-----3-----0--|
 -----2-----2--------2-----|--2-----2-----------2-----|
 --0-----------------------|-----0--------------------|
 --------------------------|--------------------------|
 --------------------------|--------------------------|

E E E E E E E E H Q Q S Q S Q S Q S
 
 --------------0-----------|----------------0----|--L----------------------|
 --------2--------2-----2--|---------------------|----3----L-1----L-0----L-|
 -----3-----3--------3-----|---------------------|-------------------------|
 --------------------------|---------------------|-------------------------|
 --4-----------------------|---------------------|-------------------------|
 --------------------------|--2--------L---------|-------------------------|

E S E S Q S Q S Q S Q S S S S S S S
 
 --------------------------|---------------------------------|
 --------------------------|---------------------------------|
 --2--L-0--L---------------|---------------------------------|
 ------------4----L-2----L-|--0----L-------------------------|
 --------------------------|---------3----L-2h-3p-2p-0h------|
 --------------------------|----------------------------3p-2-|

Q Q Q Q Q Q Q Q Q Q Q Q
 
 |-----------------------|-----------------------||-----------------------|
 |-----------------------|-----------------------||-----------------------|
 |*-----------------0----|-----------------0----*||*-----------------0----|
 |*------------4---------|--4---------4---------*||*------------4---------|
 |--------2--------------|-------2---------------||--------0--------------|
 |---0-------------------|-----------------------||---0-------------------|

Q Q Q Q Q Q Q Q Q Q Q Q
 
 -----------------------||-----------------------|-----------------------||
 -----------------------||-----------------------|-----------------------||
 ------------0---------*||*-----------------0----|-----------------0----*||
 --4--------------4----*||*------------4---------|--4---------4---------*||
 -------0---------------||--------2--------------|-------2---------------||
 -----------------------||---0-------------------|-----------------------||

Q Q Q Q Q Q Q Q Q Q Q Q
 
 -----------------------|-----------------------||-----------------------|
 -----------------------|-----------------------||---1----0--------------|
 *-----------------0----|------------0---------*||*------------2----0----|
 *------------4---------|--4--------------4----*||*----------------------|
 --------0--------------|-------0---------------||-----------------------|
 ---0-------------------|-----------------------||-----------------------|

Q Q Q Q Q Q Q Q Q Q Q Q
 
 ----------------------|----------------------|----------------------|
 ----------------------|----------------------|----------------------|
 ----------------------|------------0---------|-------0--------------|
 --4----2----0---------|-------2--------------|--2---------2---------|
 -----------------2----|--3--------------3----|-----------------3----|
 ----------------------|----------------------|----------------------|

Q Q Q Q Q Q Q Q Q Q Q Q
 
 ----------------------|----------------------|----------------------|
 ----------------------|----------------------|----------------------|
 ------------0---------|-------0--------------|------------0---------|
 -------2--------------|--2---------2---------|-------0--------------|
 --3--------------3----|-----------------3----|--2--------------2----|
 ----------------------|----------------------|----------------------|

Q Q Q Q Q Q Q Q Q Q Q Q
 
 ----------------------|-----------------------||----------------------|
 ----------------------|-----------------------||----------------------|
 -------0--------------|------------0---------*||-------0--------------|
 --0---------0---------|-------0--------------*||--0---------0---------|
 -----------------2----|--2--------------2-----||-----------------2----|
 ----------------------|-----------------------||----------------------|

Q Q Q Q Q Q Q Q Q Q Q Q
 
 ----------------------|----------------------|----------------------|
 ------------1---------|-------1--------------|------------1---------|
 ----------------------|----------------------|-----------------2----|
 -------2--------------|--2---------2---------|-------0--------------|
 --0--------------0----|-----------------0----|----------------------|
 ----------------------|----------------------|--2-------------------|

Q Q Q Q Q Q Q Q Q Q Q Q 4x
 
 ----------------------||-----------------------|-----------------------||
 --3----1----0---------||-----------------------|-----------------------||
 -----------------2----||*-----------------0----|-----------------0----*||
 ----------------------||*------------4---------|--4---------4---------*||
 ----------------------||--------2--------------|-------2---------------||
 ----------------------||---0-------------------|-----------------------||

Q Q Q Q Q Q Q Q Q Q Q Q
 
 ----------------------|----------------------|----------------------|
 ----------------------|----------------------|----------------------|
 -----------------0----|-----------------0----|-----------------0----|
 ------------4---------|--4---------4---------|------------4---------|
 -------2--------------|-------2--------------|-------2--------------|
 --0-------------------|----------------------|--0-------------------|

Q Q Q Q Q S Q S Q S S Q E S E S Q S S
 
 ----------------------|--0----L-----------------|--------------------------|
 ----------------------|---------3----L-1----L-0-|--L-----------------------|
 -----------------0----|-------------------------|-------2--L-0--L----------|
 --4---------4---------|-------------------------|-----------------4----L-2-|
 -------2--------------|-------------------------|--------------------------|
 ----------------------|-------------------------|--------------------------|

Q Q S Q S S S S S S S H Q
 
 ---------------------------|---------------------------||
 ---------------------------|---------------------------||
 ---------------------------|---------------------------||
 --L----0----L--------------|---------------------------||
 --------------3----L-2h-3h-|--2p-0---------------------||
 ---------------------------|-------3p-2p-0--------L----||

Duration Legend
 
 ---------------

W - whole
H - half
Q - quarter
E - 8th
S - 16th
T - 32nd
X - 64th
. - note dotted
|-n-| - n-tuplets
Tablature Legend
 
 ----------------

L - tied note
x - dead note
g - grace note
(n) - ghost note
> - accentuded note
NH - natural harmonic
AH - artificial harmonic
TH - tapped harmonic
SH - semi harmonic
PH - pitch harmonic
h - hammer on
p - pull off
b - bend
br - bendRelease
pb - preBend
pbr - preBendRelease
brb - bendReleaseBend
\n/ - tremolo bar dip
\n - tremolo bar dive
-/n - tremolo bar Release up
/n\ - tremolo bar inverted dip
/n - tremolo bar return
-\n - tremolo bar Release down
S - shift slide
s - legato slide
/ - slide into from below or out of upwards
\ - slide into from above or out of downwards
~ - vibrato
W - wide vibrato
tr - trill
TP - tremolo picking
T - tapping
S - slap
P - pop
< - fade in
^ - brush up
v - brush down

Important: The song above is NOT stored on the Chordie server. The original song is hosted at www.guitaretab.com. Chordie works as a search engine and provides on-the-fly formatting. Chordie does not index songs against artists'/composers' will. To remove this song please click here.

Text color:
Chord color:
Chord grids: 
Font size:    
Page size: 

E
Rate #1 of 1 versions

Login - add to songbook

SHARE PAGE  



You need to log in to post comments