Guitar Tabs, Chords and Lyrics
Major upgrade!! After one year development the new version of Chordie is now online! Please give feedback.


The Saddest Song  The Ataris

Song: The Saddest Song
Artist: The Ataris
Album: So Long, Astoria
Tuning: Drop C
Chords:
Bb: x355xx
Am: x221xx
F: 555xxx
Eb: 333xxx
(Intro)
 
 E--------------------------------------------|
 B--------------------------------------------|
 G--------------------------------------------|
 D---9-10-9------/7-5----9-10-9------/12-10---|
 A----------10-7----------------10-7----------|
 E--------------------------------------------|
 E--------------------------------------------|
 B--------------------------------------------|
 G---------9-10-9-------------7-9-------------|
 D--7-9-10--------10-7-/12-10-----------------|
 A--------------------------------/8----------|
 E--------------------------------------------|

[Bb-Am-F-Eb]  
[Bb]Only two more d[Am]ays, Until your b[F]irthday
Yesterd[Eb]ay was mine
[Bb]You'll be turning f[Am]ive, I know what it's l[F]ike,
Growing up without your f[Eb]ather in your life
Pre-Chorus:
[Am]So I pret[F]end, I'm d[Bb]oing all I c[Eb]an
And I h[Am]ope someday you'll f[F]ind it in your h[Eb]eart
[Am]To underst[F]and
Why I[Bb]'m not ar[Eb]ound
And forg[Am]ive me for not b[F]eing in your l[Eb]ife
Chorus:
I remember w[Bb]aiting
For you to come
Remember wa[Am]iting
For you to call
Remember wa[F]iting there to find nothing at [Eb]all
I remember w[Bb]aiting, For you to come
(Waiting for you to come)
Remember w[Am]aiting, For you to call
(Waiting for you to call)
W[F]aiting there to find nothing at [Eb]all
 
 E--------------------------------------------|
 B--------------------------------------------|
 G--------------------------------------------|
 D---9-10-9------/7-5----9-10-9------/12-10---|
 A----------10-7----------------10-7----------|
 E--------------------------------------------|
 E--------------------------------------------|
 B--------------------------------------------|
 G---------9-10-9-------------7-9-------------|
 D--7-9-10--------10-7-/12-10-----------------|
 A--------------------------------/8----------|
 E--------------------------------------------|

[Bb-Am-F-Eb]  
[Bb]Maybe somed[Am]ay
you'll really get to k[F]now me
not just the letters r[Eb]ead to you
[Bb]I pray I get the ch[Am]ance
To make it up [F]to you
We got a lot of c[Eb]atching up to do
Pre-Chorus:
[Am]So I pret[F]end, I'm d[Bb]oing all I c[Eb]an
And I h[Am]ope someday you'll f[F]ind it in your h[Eb]eart
[Am]To underst[F]and
Why I[Bb]'m not ar[Eb]ound
And forg[Am]ive me for not b[F]eing in your l[Eb]ife
Chorus:
I remember w[Bb]aiting
For you to come
Remember wa[Am]iting
For you to call
Remember wa[F]iting there to find nothing at [Eb]all
I remember w[Bb]aiting, For you to come
(Waiting for you to come)
Remember w[Am]aiting, For you to call
(Waiting for you to call)
W[F]aiting there to find nothing at [Eb]all
I remember w[Bb]aiting
(Waiting for you to call)
(W[Am]aiting for you to call)[F-Eb]
I rememb[Bb]er...
Forgive [Am]me!
I'm so sor[F]ry!
[Eb]I will make it up to [Bb]you....

Important: The song above is NOT stored on the Chordie server. The original song is hosted at www.guitaretab.com. Chordie works as a search engine and provides on-the-fly formatting. Chordie does not index songs against artists'/composers' will. To remove this song please click here.

Text color:
Chord color:
Chord grids: 
Font size:    
Page size: 

Am Bb Eb F
Rate #4 of 8 versions

Login - add to songbook

SHARE PAGE  




You need to log in to post comments