Guitar Tabs, Chords and Lyrics
Server problems seems to be fixed. Chordie has been experiencing problems with songs disappearing. These issues now seems to be fixed, but still verifying the fix. If you find anything strange, please email admin@chordie.com.


So Long, Astoria  The Ataris

The Ataris
So Long Astoria
So Long Astoria
2003
Submitted by: paramore_fans@yahoo.com
Key: D
Tuning: Standard EADGBe
Chords used:
D - xx0232
A - x02220
Bm - x24432
G - 320033
Em - 022000
[F#m]A/C#[-] - [244222]x4222x
 
 Intro: D--G--Bm--A(x4)

Guitar 2:
 
 e|-------------------------------------------------0---0---0---0---|
 B|-3---3---3---3---2---2---2---2---3---3---3---3-------------------|
 G|---2---2---2---2---2---2---2---2---2---2---2---2---2---2---2---2-|
 D|-----------------------------------------------------------------| (x2)
 A|-----------------------------------------------------------------|
 E|-----------------------------------------------------------------|

then
 
 e|---------|-----2-------|---------|-----------|
 B|-------3-|-3-----------|-------3-|-3-------3-|
 G|---0-2---|---2---2h4p2-|---0-2---|---2---3---|
 D|-4-------|-------------|-4-------|-----4-----|
 A|---------|-------------|---------|-----------|
 E|---------|-------------|---------|-----------|

x3 x3
Verse 1:
[D] It was the first snow of the [G]season
I can almost see you [Bm]breathing
in the middle of that [A]empty street
[D] Sometimes I still see my[G]self
in that lonesome bedroom[Bm] Playing my guitar
and singing [A]songs of hope for a better future
Chorus:
[Em] Life [F#m]is On[G]ly As good as the memories we [Bm]make
And i'm taking [A]back what belongs to me
[Em]Polaroids of [F#m]classrooms unat[G]tended
These relics of re[Bm]memberence
are just like [A]shipwrecks
Only they're [Em]gone faster than
the s[G]mell af[D]ter it rains
 
 Interlude: D--G--Bm--G-A

Guitar 2:
 
 e|---------------------------------|
 B|-3---3---3---3---2---2---2---2---|
 G|---2---2---2---2---2---2---2---2-|
 D|---------------------------------| (x2)
 A|---------------------------------|
 E|---------------------------------|

Verse 2:
[D] Last night while everyone was s[G]leeping
I drove through my old [Bm]neighborhood
And resurrected [A]memories from ashes
[D] We said that we would never [G]fit in
When we were really [Bm]just like them
Does rebellion [A]ever make a difference?
(Repeat Chorus)
 
 Interlude: D--G--Bm--G-A

Outro:
[D] So long As[A/C#]toria I [Bm]found a
map to buried treasure
And [Em]even if we come home
empty [A]handed we'll still have our
s[D]tories of [A/C#]battle scars
[Bm]pirate ships and [A]wounded hearts
[Em]Broken bones and all
the best of [A]friendships
And when this [D]hourglass has
[A/C#]filtered out its [Bm]final grain of sand
I [Em]raise my glass to the memories we [A]had
[D]This is my wish[A/C#] and I'm takin [Bm]back
A G--G--G(hold)
i'm takin them all back

Important: The song above is NOT stored on the Chordie server. The original song is hosted at www.guitaretab.com. Chordie works as a search engine and provides on-the-fly formatting. Chordie does not index songs against artists'/composers' will. To remove this song please click here.

Text color:
Chord color:
Chord grids: 
Font size:    
Page size: 

A A/C# Bm D Em F#m G
Rate #2 of 5 versions

Login - add to songbook

SHARE PAGE  



You need to log in to post comments