Guitar Tabs, Chords and Lyrics
Major upgrade!! After one year development the new version of Chordie is now online! Please give feedback.


Blind and Unkind   The Ataris

 
 e-----------------------------|(2x)
 B-------------------------540-|
 G----43-----43-----43---------|
 D-%%---4-%%---4-%%---4-%%-----|
 A-%%-----%%-----%%-----%%-----|
 E-----------------------------|

 


 "You inhale the...that I'm in..."


 

 
 e------------(x3)-----------------------------------|
 B---------------------------------------------------|
 G-4*-6*-8*-9*----4~-6~-8~-9~--8~-~-~-9~-11~-~-~-----|
 D-4--6--8--9-----x--x--x--x---x------x---x-----ps\\-|
 A-2--4--6--7-----2--4--6--7---6------7---9----------|
 E---------------------------------------------------|

 


 chorus "Why must I..."


 

 
 e-------------------------------------------------------------------------|
 B-------------------------------------------------------------------------|
 G----------9999-------------9999-1111----------9999-----------------------|
 D-66666666-9999-99-66666666-9999-1111-66666666-9999-99-66666666-444444444-|
 A-66666666-7777-99-66666666-7777--9-9-66666666-7777-99-66666666-444444444-|
 E-44444444------77-44444444-----------44444444------77-44444444-222222222-|

 


 repeat intro


 "I undo the..."


 

 
 e----------------------(x2)--------------------(x2)-----|
 B-------------------------------------------------------|
 G-4#-4/6#-6/8#-8/9#-9\8----4~-4/6~-6/8~-8/9~-9\---------|
 D-4--4/6--6/8--8/9--9\8----4--4/6--6/8--8/9--9\----ps\\-|
 A-2--2/4--4/6--6/7--7\6----2--2/4--4/6--6/7--7\---------|
 E-------------------------------------------------------|

 


 repeat chorus


 repeat intro


 ending


 e---


 [B---]  


 [G-4-]  


 [D-4-]  


 [A-2-]  


 [E---]  


 


 


 


 


 


 **RHYTHM GUITAR**


 main part (8x)


 

 
 e-------------|
 B-------------|
 G----6*-8*-9*-|
 D-9*-6--8--9--|
 A-9--4--6--7--|
 E-7-----------|

 


 chorus "Why must I..."


 

 
 e-------------------------------------------------------------------------|
 B-------------------------------------------------------------------------|
 G----------9999-------------9999-1111----------9999-----------------------|
 D-66666666-9999-99-66666666-9999-1111-66666666-9999-99-66666666-444444444-|
 A-66666666-7777-99-66666666-7777--9-9-66666666-7777-99-66666666-444444444-|
 E-44444444------77-44444444-----------44444444------77-44444444-222222222-|

 


 repeat main (2x)


 "I undo the..."


 

 
 e----------------------(x2)--------------------(x2)-|
 B---------------------------------------------------|
 G-4#-4/6#-6/8#-8/9#-9\8----4~-4/6~-6/8~-8/9~-9\-----|
 D-4--4/6--6/8--8/9--9\8----4--4/6--6/8--8/9--9\-----|
 A-2--2/4--4/6--6/7--7\6----2--2/4--4/6--6/7--7\-----|
 E---------------------------------------------------|


Important: The song above is NOT stored on the Chordie server. The original song is hosted at www.guitaretab.com. Chordie works as a search engine and provides on-the-fly formatting. Chordie does not index songs against artists'/composers' will. To remove this song please click here.

This song is displayed as text-only. Transposing and tuning is only available for chordpro-songs.
Rate #1 of 2 versions

Login - add to songbook

SHARE PAGE  




You need to log in to post comments